.

banners

Tablatura fácil de... Aprendimos a vivir. Medina Azahara.



  El tema que elegían como sencillo para presentar el disco con el que regresaban al panorama musical hace ya casi 2 años era este "Aprendimos a vivir" del que os quiero dejar unos momentos en tablaturas fáciles para que disfrutéis con una de las mejores bandas del panorama nacional.
  Un saludo.
  TabsFácil.




 Aprendimos a vivir. Medina Azahara.

(Guit. 1)
1.--------------------------------------------------
2.--------------------------------------------------
3.-----------------------------------------------(HH)
4.-------------------------------------0-2-3--2-3-5-
5.-0-0-0-0-0-0-0-0-0-0-0-0-0-0-0-0-0-0--------------
6.--------------------------------------------------

(Guit. 2)
1.--------------------------------------------
2.--------------------------------------------
3.----5-4---4-------5-4---4-------5-4---4-----
4.--------7---5-7-------7---5-3-------7---5-7-
5.--------------------------------------------
6.--------------------------------------------

(Guit. 1)
1.--------------------------------------------------
2.--------------------------------------------------
3.-----------------------------------------------(HH)
4.-------------------------------------0-2-3--2-3-5-
5.-0-0-0-0-0-0-0-0-0-0-0-0-0-0-0-0-0-0--------------
6.--------------------------------------------------

(Guit. 2)
1.--------------------------------------------
2.--------------------------------------------
3.----5-4---4-------5-4---4-------5-4---4-----
4.--------7---5-7-------7---5-3-------7---5-7-
5.--------------------------------------------
6.--------------------------------------------



" Hoy tengo ganas..."
1.-------------------------------------------------
2.-------------------------------------------------
3.-------------------------------------------------
4.-------------------------------------------------
5.-------------------------------------------------
6.-5-5-5-5-5-5-5-5-5---4-4-4-4-4-4-4-4-4---3-3-3-3-

1.----------------------------------------------1-
2.----------------------------------------------1-
3.------------------------------------------------
4.---------------------------------------0-2-3----
5.---------------------------5-5-5-5-5------------
6.-3-3-3-3-3-3---2-2-2-2-2------------------------

1.-------5-----------------
2.---------5---------------
3.-------------------------
4.---2-------------7---9---
5.---0---------3---5---7---
6.-------------1-----------

(1:29) (Estribillo).   ..."Aprendimos..."
1.----------------------------------------------
2.----------------------------------------------
3.----------------------------------------------
4.----2-----5-----7-----------------------------
5.----0-----3-----5-----7---5---3---2h3h2h3h2---
6.-------------------------------------------...



Más tablaturas de...Medina Azahara.

No hay comentarios:

Publicar un comentario