.

banners

Tablatura fácil de...Stalingrad. Accept.




   Uno de los mejores álbumes  de la banda para mi gusto, hablo de la era moderna, atrás quedan ya aquellos años de Udo como frotman de la banda, y un tema muy Accept que no podía faltar en tu web de tablaturas fáciles.
   Accept y su tema "Stalingrad" en tabsfacil.es.
  Un saludo.
  TabsFácil.



Stalingrad.Accept.

(Guitarra 1)
1.----------------------------------
2.----------------------------------
3.----------------------------------
4.---6---2---6------6---2---4---6---
5.---4---0---4------4---0---2---4---
6.----------------------------------

(guitarra 2)
1.----------------------------------------------
2.---5-4--------------------5-4-------4(5)(4)---
3.-6-----6---------------6------6---4---------6-
4.---------6---4-/6-7-6-----------6-------------
5.----------------------------------------------
6.----------------------------------------------

(Estrofa    0:14)
1.---------------------------------------------
2.---------------------------------------------
3.---------------------------------------------
4.---------------------------------------------
5.-2--------------------------------------2----
6.-0-0-0---0-0-0---0-0-0---0-0-0---0-2-3--0-0-0
 
1.----------------------------------------------
2.----------------------------------------------
3.----------------------------------------------
4.----------------------------------------------
5.---------------------------------5------------
6.-0-0-0---0-0-0---0-0-0---0-2-3---3-3-3---3-3-3


1.---------------------------------------
2.---------------------------------------
3.---------------------------------------
4.---------------------------------------
5.-------------4-----------3-----------2-
6.-3-3-3---3---2---2-2-2---1---1-1-1---0-

1.-----------------------------------------------
2.-----------------------------------------------
3.-----------------------------------------------
4.-----------------------------------------------
5.----------------------------------0-2----2-0---
6.-0-0---0-0-0--0-0-0--0-3-0--3-5-0----0-3----3-0

(puente 1:15)
1.---------------------------------------
2.---------------------------------------
3.---------------------------------------
4.-----------------2-------------5---4---
5.---2-----5---3---0---2-----5---3---2---
6.---0-0-2-3---1-------0-0-2-3-----------



(1:31)    “¡Stalingrad…
1.---------------------------------------------
2.---------------------------------------------
3.---------------------------------------------
4.---------------------------------------------
5.-------5-------5-------5--7-5-------5-------5
6.-0-0-0-3-0-0-0-3-0-0-0-3--5-3-0-0-0-3-0-0-0-3


1.---------------
2.---------------
3.---------------
4.---------------
5.-------5---4-2-
6.-0-0-0-3---2-0-

(1:44)
1.---------------------------------------------------
2.---5-4-----------------5-4---7(9)-7-7-7-7-5-4-5h4--
3.-6-----6-------------6-----6----------------------6
4.---------6-4-/6-7-6--------------------------------
5.---------------------------------------------------
6.---------------------------------------------------

(guitarra acompañamiento 3:20)
1.----------------------------------
2.----------------------------------
3.----------------------------------
4.----------------------------------
5.---8---4---8------8---4---6---8---
6.---6---2---6------6---2---4---6---

(Solo 3:20)
1.----------------------------------------
2.----------------------------------------
3.---6-5----------------6-5-----------5---
4.-8-----8------------8-----8-----6-8---8-
5.---------8-6/8-9-8----------8-----------
6.----------------------------------------

1.---------------------------------------------
2.-----------------------------------4h5h4-----
3.---------------------------------6-------6---
4.---1h2h1------4-6-7-9-7-6-/4-/6--------------
5.-4-------4-----------------------------------
6.-----------4---------------------------------


1.--------------------------------
2.---7(9)(9)-7---5-4-5-4----------
3.------------------------6h4h6---
4.--------------------------------
5.--------------------------------
6.--------------------------------



(3:54)
1.----------------------------------------------
2.----------------------------------------------
3.-6-6---6-8-9---9-9---9-8-6---8-8---8-6---6----
4.---------------------------------------9---6--
5.----------------------------------------------
6.----------------------------------------------

1.-----------------------------------------------
2.----------------------------------------------9
3.-6-6---6-8-9---9-9---8-9-11---11-11---11-9-11--
4.-----------------------------------------------
5.-----------------------------------------------
6.-----------------------------------------------

1.-----------------------------------------------
2.-4(5)-4-2---2-----------------1-----------1----
3.----------4---4-2-4-2-1-2-1-4---4-2-4-2-4------
4.-----------------------------------------------
5.-----------------------------------------------
6.-----------------------------------------------

1.------------------
2.---1(2)1------1---
3.-4-------4-2-4----
4.------------------
5.------------------
6.------------------

(4:31)                                          (AH)                                                           
1.-----------------------------------------------2-
2.-----5-4-2h4---2-------------------------2-4-5---
3.-4h6---------1---2h4h2h1---1-------1-2-4---------
4.-------------------------4---2---4---------------
5.-------------------------------------------------
6.-------------------------------------------------

1.---4-2-0-2---------------------------------------
2.-5---------4h5h4---------------------------------
3.-----------------6---8(9)(8)-6h8---6-4-2h4-------
4.---------------------------------6----------2----
5.-------------------------------------------------
6.-------------------------------------------------

1.--------------
2.---4(5)-4-2-0-
3.--------------
4.--------------
5.--------------
6.--------------

(5:15)
1.----------------------------------------------
2.----------------------------------------------
3.------11h12h11--------------------------------
4.---14----------12-14--------10-9-12-10-9----9-
5.---------------------14---12-------------12---
6.----------------------------------------------

1.------------------------------------------------
2.--------------12--------------------------------
3.-14(16)-14-12----14-12-----------11h12h11-------
4.-----------------------16-14--14----------12-14-
5.------------------------------------------------
6.------------------------------------------------

1.---------------------------------------
2.---------------------------------------
3.---------------------------------------
4.-------10-9---7-9-7---5-7-5---4-5-4----
5.-14-12-------------------------------7-
6.---------------------------------------

Más tablaturas de...Accept.

No hay comentarios:

Publicar un comentario