.

banners

Acordes y tablatura fácil de... This house is not for sale. Bon Jovi.



  Bon Jovi ya tiene nuevo material preparado y listo para salir, lo hará a últimos de Octubre, pero, como no podía ser de otra manera ya tiene single adelanto  "This house is not for sale" para que vayamos abriendo boca. Los americanos a pesar de faltar en sus filas algunos de sus miembros, se han lanzado en un nuevo proyecto y, aquí, en tablaturas fáciles, tu sitio de canciones para guitarra, te adelantamos un momento en tablatura del solo y los acordes del inicio y estribillo, para que disfrutes con tu banda de siempre, o con las últimas novedades del momento.
  Bon jovi en Tablaturas fáciles.
  Un saludo.
  TabsFácil.








This house is not for sale. Bon Jovi.


(0:45)
                    
Fam             Sol#m        Do#M         Sol#m                
 I set each stone and I hammered each nail

Fam     Sol#m   Do#m    Sol#m   
this house is not for sale

Fam             Sol#m        Do#M         Sol#m   
When memeoru is lived and my dreams all fall

Fam   Sol#m   Do#M  Sol#m   
this house is not for sale

Fam       Sol#m        Do#M         Sol#m   
Coming home, I'm coming home...

(2:17)

1.--------------------------------|
2.--------------------------------|
3.-----------------------------10-|
4.--------------6--------8(10)----|
5.-//--/8---6h8----8-6------------|
6.--------------------------------|

1.--------------------------------|
2.------------------9--11(13)(11)-9
3.----8---------------------------|
4.-10----8/10--/10----------------|
5.--------------------------------|
6.----------------------------...




Más tablaturas de...Bon Jovi.

No hay comentarios:

Publicar un comentario en la entrada