Ir al contenido principal

Acordes de...Haunted by your ghosts. Hangar.



 El ex-bateria de Angra Aquiles Priester vuelve a lanzar disco con su banda Hangar. Dentro de ese nuevo álbum además de temas nuevos, se incluyen los más conocidos éxitos de la banda. Uno de ellos es sin duda "Haunted by your ghosts" del que hoy os quiero dejar unos acordes del tema para que practiquéis y disfrutéis con el sonido de la banda.
  Un saludo.
  TabsFácil.








Haunted by your ghosts. Hangar.

  fa#menor---  re mayor--- la mayor---  mi mayor---re#mayor
1.---2-----------3---------0-----------0--------
2.---2-----------2---------2-----------0-------2
3.---4-----------3---------2-----------2-------1
4.---4-----------0---------2-----------2-------3
5.---2---------------------0-----------1-------4
6.---2---------------------------------0--------

Intro piano.
1.---11-9---------------11-9------------9-
2.---------11-9---------------11-9--------
3.--------------11------------------11----
4.-----------------13---------------------
5.----------------------------------------
6.----------------------------------------

(2:00)

F#menor     remayor
And I know I know

       Lamayor                  mimayor
I need to find something worth living for

F#menor
And I know I know

Lamayor        remayor            re#mayor
I have no answers, but I'm looking for

Fa#menor             remayor
When you learn to lose

            Lamayor           mimayor
There are no limits in your way

Fa#menor             remayor
When you share a dream

               Lamayor        mimayor

You don't look back on yesterday...

Más tablaturas de...Hangar.

Comentarios

LO MÁS BUSCADO EN TABSFACIL.ES:

Tabs fácil de... Evil twin. Anthrax.

"For all kings" es el título con el que, el 26 de Febrero de 2016, la legendaria banda y padres del thrash metal, Anthrax, regresaban al panorama musical internacional después de 4 años de inactividad.   Unos días antes nos dejaban portada y tema adelanto "Evil twin" del que como siempre os quiero dejar unos momentos en tablatura que, espero que disfrutéis.   Un saludo.   TabsFácil.





Evil twin. Anthrax.
1.------------------------------------- 2.------------------------------------- 3.------------------------------------- 4.--6-7-8--6-7-8--------4h6-7-8--6-7-8- 5.---------------6-6-6----------------- 6.-------------------------------------
1.----------------------- 2.----------------------- 3.----------------------- 4.--3-/6-6--6-7-8--6-7-8- 5.--1-/4-4--------------- 6.----------------------...
(0:22)
1.-------------------------------- 2.-------------------------------- 3.-------------------------------- 4.-------------------------------- 5.-------------------------------- 6.--4-4-4-7-7-2-…

Aprende a tocar...Constelación Alpha D.C.I. Mägo de Oz.

Todas las críticas que he leído del disco coincidían en que "Constelación D.C.I." era  la canción más "rara" que había en el nuevo trabajo de la banda, din dejar de ser un buen tema.
  En OZTABLATURAS puedes aprender a tocarla desde ya.
  Un saludo.
  OzTablaturas.

Constelación Alpha D.C.I.







Acordes de... Lágrimas de mármol. Joaquin Sabina.

"Lágrimas de mármol" es el segundo adelantodel esperado trabajo de Joaquín Sabina, "Lo niego todo" que saldrá a primeros de Marzo. Cómo todos ya sabréis, para éste último disco se ha rodeado de nada más y nada menos que de Leiva como productor del disco, "Voy a juntarme con un jovenzuelo que me gusta mucho, a ver si renovamos un poco el aire",  son palabras textuales del propio artista.  En Tablaturas fáciles os queremos dejar los acordes de "Lágrimas de mármol" para los que les guste tocar las canciones de Sabina.    Un saludo.    TabsFácil.




Lágrimas de mármol. Joaquin Sabina.

Si  -  La#m  -  Sol·m  -  Fa#  -  Do#m - Sol  -  Si-  Fa#
Si                                    Mi    El tren se aleja, el tiempo pasa
Si                               Fa# la vida alrededor ya no es tan mía
Sol#m                            Mi desde el observatorio de mi casa
Si                      Fa# la fiesta se resfria.
Si                                          Mi Los pocos que …

Tablatura fácil de... Warrior. Michael Schenker Group.

Mientras el 2 de Marzo regresa un grande de la guitarra acompañado de un elenco de artistas de gran talla y envergadura, ya podemos ir disfrutando de adelantos o singles, cómo el tema "Warrior" segundo tema adelanto de "Resurrection" el próximo disco de Michael Schenker y en el que contará con los vocalistas más populares que pasaron por sus filas años atrás, Gary Barden, Graham Bonnet y Robin McAuley.
  Disfruta en Tablaturas fáciles de un momento en tablatura de "Warrior." adelanto del próximo disco de Michael Schenker.
  Un saludo.


Warrior. Michael Schenker Group.

1.---------------------------|
2.---------------------------|
3.-------5-------------------|
4.-5-7-9---9-7-9--7-5-7--5-4-|
5.---------------------------|
6.---------------------------|

1.--------------|
2.--------------|
3.--------------|
4.-4h5---4------|
5.-----7---7-5--|
6.--------------|...



(0:45)
1.--------------------------------|
2.--------------------------------|
3.--------------------------------|
4…

Tabs fácil de ... The eagle flies alone. Arch Enemy.

Tres años después Arch Enemy vuelve a sacar disco "Will to power". Un disco para consagrar dentro de la banda a su nueva vocalista, Alissa Whiteglutz y en el que empiezan aparecer las aportaciones del casi recién incorporado Jeff Loomis.
  Un disco cargado, como nos tiene acostumbrados la banda sueca, de riffs cañeros y grandes melodías y, es una de esas de las que os queremos dejar hoy en Tablaturas fáciles un momento en tablatura.
Nada mas y nada menos que del tema "The eagle flies alone" para que la disfrutéis y practiquéis con la guitarra.
  Un saludo.
  TabsFácil.





The eagle flies alone. Arch Enemy.


(0:45)

1.------------------------------|
2.------------------------------|
3.-------5/6\5-3-5-3h5h3/1---3--|
4.-3-5-6-------------------1---1
5.------------------------------|
6.------------------------------|

1.---------------------------|
2.---------------------------|
3.-3---3---3---3---3---3---3-|
4.---1---1---1---1---1---1---|
5.---------------------------|
6.----------------…