.

banners

Acordes de...Haunted by your ghosts. Hangar.



 El ex-bateria de Angra Aquiles Priester vuelve a lanzar disco con su banda Hangar. Dentro de ese nuevo álbum además de temas nuevos, se incluyen los más conocidos éxitos de la banda. Uno de ellos es sin duda "Haunted by your ghosts" del que hoy os quiero dejar unos acordes del tema para que practiquéis y disfrutéis con el sonido de la banda.
  Un saludo.
  TabsFácil.








Haunted by your ghosts. Hangar.

  fa#menor---  re mayor--- la mayor---  mi mayor---re#mayor
1.---2-----------3---------0-----------0--------
2.---2-----------2---------2-----------0-------2
3.---4-----------3---------2-----------2-------1
4.---4-----------0---------2-----------2-------3
5.---2---------------------0-----------1-------4
6.---2---------------------------------0--------

Intro piano.
1.---11-9---------------11-9------------9-
2.---------11-9---------------11-9--------
3.--------------11------------------11----
4.-----------------13---------------------
5.----------------------------------------
6.----------------------------------------

(2:00)

F#menor     remayor
And I know I know

       Lamayor                  mimayor
I need to find something worth living for

F#menor
And I know I know

Lamayor        remayor            re#mayor
I have no answers, but I'm looking for

Fa#menor             remayor
When you learn to lose

            Lamayor           mimayor
There are no limits in your way

Fa#menor             remayor
When you share a dream

               Lamayor        mimayor

You don't look back on yesterday...

Más tablaturas de...Hangar.

No hay comentarios:

Publicar un comentario en la entrada