.

banners

Tabs fácil de...Right wings of the garden triptych.Cradle of filth.



    "Hammer of the witches" llevaba  por título el último trabajo de Cradle of filth, que salía a la venta a primeros de Julio del año pasado y, "Right wings of the garden triptych" era el tema que eligieron para sacar single adelanto.
    Es de este tema del que yo os quiero dejar hoy unos momentos en tablatura que espero como siempre que os guste y lo disfrutéis.
    Cradle of Filth en tablaturas fáciles.
    Un saludo.
    TabsFácil.




Right wings of the garden triptych. Cradle of filth.

   (0:41)
1.--------------------------------------13-
2.-------12-13-12-----12-13-12----12-13----
3.-----------------------------------------
4.---/14-----------12----------13----------
5.-----------------------------------------
6.-----------------------------------------

1.------------12-13-12--10-12--19--12----12
2.--10-12----------------------------------
3.--------13--------------------------12---
4.-----------------------------------------
5.-----------------------------------------
6.-----------------------------------------

1.--13-12-10-12--13-12-10----------13h12h10
2.------------------------13-12-10---------
3.-----------------------------------------
4.-----------------------------------------
5.-----------------------------------------
6.-----------------------------------------


1.------------------------------
2.--13h12h10--------------------
3.-----------12h10h9----------8-
4.-------------------12h10h9----
5.------------------------------
6.----------------------------...

Más tablaturas de...Cradle of Filth.

No hay comentarios:

Publicar un comentario en la entrada