.

banners

Tabs fácil de...Resist and bite. Sabaton



   Este "Resist and bite" era el adelanto de lo que sería a posteriori y hasta el próximo 19 de Agosto que salga "The last Stand" el último trabajo de la banda Sabaton. Suecos que rebosan Heavy Metal por los cuatro costados. Otra oportunidad más para disfrutar desde www.tabsfacil.es de tus Acordes y Tablaturas preferidas.
  Un saludo.
  TabsFácil.





 Resist and bite. Sabaton.

Guitarra 1.
1.---------------------------------------------
2.---------------------------------------------
3.---------------------------------------------
4.-9-9-9-9-9-9-9-9-9-9-9-9-9-9-9-9-9-9-9-9-9-9-
5.---------------------------------------------
6.---------------------------------------------

Guitarra 2.
  TD  TI TD  TI TD TI  TD  TI  TD TI  TI   TI  TD
1.-7--2--7---2--7---5--7---3---7---5---2---5---7
2.----------------------------------------------
3.----------------------------------------------
4.----------------------------------------------
5.----------------------------------------------
6.----------------------------------------------

   TI  TD  TI TD   TD  TD  TI  TD  TD  TI  TD TI
1.-2---7---2---7---9---10--7---10---9--5---9--7
2.---------------------------------------------
3.---------------------------------------------
4.---------------------------------------------
5.---------------------------------------------
6.---------------------------------------------



Guitarra 1.
(0:19)
   “…all alone…                 …fight all…
1.-----------------------------------------------
2.-----------------------------------------------
3.-----------------------------------------------
4.-4---4--2-4--4--4--7-4-7-6-4-2-----------------
5.-2---2--0-2--2--2--5-2-5-4-2-0-2--5--7--2--5--4
6.-------------------------------0--3--5--0--3--2

(0:49)”…We…
1.---------------------------------
2.---------------------------------
3.---------------------------------
4.-4-----------------5-2-4---------
5.-2-2-2-2-2-2-2-2-2-3-0-2-2-2-2-2-
6.---------------------------------

1.--------------------------
2.--------------------------
3.--------------------------
4.-4--------------------4-2-
5.-2-2-2-2-2-2-2-2-2--5-2-0-
6.--------------------3-----

1.---------------------------------
2.---------------------------------
3.---------------------------------
4.-4-----------------5-2-4---------
5.-2-2-2-2-2-2-2-2-2-3-0-2-2-2-2-2-
6.---------------------------------

1.--------------------------
2.--------------------------
3.--------------------------
4.-4--------------------4-2-
5.-2-2-2-2-2-2-2-2-2--5-2-0-
6.--------------------3-----


(Solo 2:18)
1.--------------------------------------------
2.---------------/10---8----8-----------------
3.--------7-9------------9----7---------7-9---
4.-7-9-10-----7------------------7-9-10-----7-
5.--------------------------------------------
6.--------------------------------------------

1.-/13-13h12h10---------------------------------
2.--------------13----13-15--------------/12--10
3.-----------------12---------------9-11--------
4.--------------------------9-11-12-------------
5.----------------------------------------------
6.----------------------------------------------

1.-----------10-------------------------------
2.----10--------10----12h10-------------------
3.-11----9---------11-------11\7---11h9h7h9h11
4.--------------------------------------------
5.--------------------------------------------

6.--------------------------------------------. . .

Más tablaturas de... Sabaton.

No hay comentarios:

Publicar un comentario en la entrada