.

banners

Tabs fácil de...God is dead? Black Sabbath.



     Aunque yo soy mas de los Sabbath de la época de Toni Martin, la verdad que me apetecía volver a escuchar a Ozzy y ese estilo tan Sabbath de los 70, que creo que han conseguido, por lo menos escuchando este tema adelanto. Black Sabbath es sin duda otro de esos grupos que no podía faltar en mi blog y por eso os dejo tablatura fácil del tema, para que la disfrutéis.
    Un saludo.
    Tabs Fácil.


                




God is dead? Black Sabbath.


1.--------------------------------------------------
2.--------------------------------------------------
3.-----3--------2-------3-------2-------3-------2---
4.---4---4----4---4---4---4---4---4---4---4---4---4-
5.-6--------0-------6-------0-------6-------0-------
6.--------------------------------------------------

1.----------------------
2.----------------------
3.-------4--------2-----
4.-----4---4----4---4---
5.---2--------0---------
6.----------------------

1.--------------------------------------------------
2.--------------------------------------------------
3.-----3--------2-------3-------2-------3-------2---
4.---4---4----4---4---4---4---4---4---4---4---4---4-
5.-6--------0-------6-------0-------6-------0-------
6.--------------------------------------------------

1.-------------------------------------------------
2.-------------------------------------------------
3.-----4--------2----------------------------------
4.---4---4----4---4---6-8--6-8--10--11---6-8---6-8-
5.-2--------0---------4-6--4-6---8---9---4-6---4-6-
6.-------------------------------------------------

1.-------------------------------------------------
2.-------------------------------------------------
3.-------------------------------------------------
4.-10--11-6--6-8--6-8---10---11---6-8---6-8--------
5.--8---9-4--4-6--4-6----8----9---4-6---4-6--7-6-4-
6.-------------------------------------------5-4-2-

(1:11) “ Lost in a darkness. . .
1.--------------------------------------------------
2.--------------------------------------------------
3.-----3--------2-------3-------2-------3-------2---
4.---4---4----4---4---4---4---4---4---4---4---4---4-
5.-6--------0-------6-------0-------6-------0-------
6.--------------------------------------------------

1.--------------------------------------------------
2.--------------------------------------------------
3.-----3--------2-------3-------2-------3-------2---
4.---4---4----4---4---4---4---4---4---4---4---4---4-
5.-6--------0-------6-------0-------6-------0-------
6.--------------------------------------------------

1.--------------------------------------------------
2.--------------------------------------------------
3.-----3--------2-------3-------2-------3-------2---
4.---4---4----4---4---4---4---4---4---4---4---4---4-
5.-6--------0-------6-------0-------6-------0-------
6.--------------------------------------------------

(2:16) (5:15)
1.---------------------------------------------------
2.---------------------------------------------------
3.---------------------------------------------------
4.-----------------------------------------8---------
5.-9---9-9-9-9-9---9-9---8---8-8-8----4-3--6---6-5-4-
6.-7---7-7-7-7-7---7-7---6---6-6-6--0-2-1------------

1.--------------------------------------------------
2.--------------------------------------------------
3.--------------------------------------------------
4.--------------------------------------------------
5.-------------6-5-4-------------9---9-9-9-9-9---9-9
6.-6-5-0-5-6-0-------6-5-0-5-4---7---7-7-7-7-7---7-7

1.---------------------------------------------------
2.---------------------------------------------------
3.---------------------------------------------------
4.---------------------8-----------------------------
5.-8---8-8-8-----4-3---6--6-5-4-------------6-5-4----
6.-6---6-6-6---0-2-1------------6-5-0-5-6-0-------6-5

1.-----------
2.-----------
3.-----------
4.-----------
5.---------6-
6.---0-5-4---

1.--------------------------------------------------
2.--------------------------------------------------
3.-----3--------2-------3-------2-------3-------2---
4.---4---4----4---4---4---4---4---4---4---4---4---4-
5.-6--------0-------6-------0-------6-------0-------
6.--------------------------------------------------

1.---------------------------------------
2.---------------------------------------
3.-------3-------4---------3-------2-----
4.-----4---4-1/4---4-----4---4---4---4---
5.---6----------------6--------0---------
6.---------------------------------------

(4:03)
1.-----------------------------------------
2.-----------------------------------------
3.-----------------------------------5---6-
4.---------------------------6-6-6---3---4-
5.---9-8-9-8-9---6-9---6-6---4-4-4---------
6.---7-------7---4-7---4-4-----------------

1.---------------------------------------------
2.---------------------------------------------
3.---------------------------------------------
4.-------------------------6-6-6---3-4-3-----4-
5.-9-8-9-8-9---6-9---6-6---4-4-4---------4---2-
6.-7-------7---4-7---4-4-----------------------

1.-----------------------------------------
2.-----------------------------------------
3.---------------------------------6-------
4.-------------------------6-6-6---4---6---
5.-9-8-9-8-9---6-9---6-6---4-4-4-------4---
6.-7-------7---4-7---4-4-------------------

1.---------------------------------
2.---------------------------------
3.---------------6-----------------
4.---8---8-8-8---4---8---8-8-8---6-
5.---6---6-6-6-------6---6-6-6---4-
6.---------------------------------

(6:19)
1.-------------------------------------
2.-------------------------------------
3.-------------------------------------
4.------------4-----------------4-6----
5.---4-6-4-6----6-4---6-4-----6------6-
6.------------------6-----6-5----------

(6:35)
1.-------------------------------------------------
2.-------------------------------------------------
3.-------------------------------------------------
4.-8-8---11---8---8---11---8---8---11---8---8-4-6-8
5.-6-6----9---6---6----9---6---6----9---6---6-----6
6.-------------------------------------------------

1.-------------------------------------------------
2.-------------------------------------------------
3.-------------------------------------------------
4.-8-8---11---8---8---11---8---8---11---8---6-7-6-6
5.-6-6----9---6---6----9---6---6----9---6---4-----4
6.-------------------------------------------------

(7:38)
1.---------9-6--------------------------------9----9
2.----6-7-------9(11)-9(11)-9(11)-7-9-7---/11---11--
3.-/8-----------------------------------8-----------
4.--------------------------------------------------
5.--------------------------------------------------
6.--------------------------------------------------

1.----------6---------------------------
2.---11-7-9---9-7---6-7-6---------6-----
3.------------------------6-----6---8---
4.----------------------------8---------
5.--------------------------------------
6.--------------------------------------...

Más tablaturas de... Black Sabbath.

No hay comentarios:

Publicar un comentario en la entrada