.

banners

Tabs fácil de...Enshrined in crematoria. Cradle of filth.


  
   Dicen las críticas que este "Hammer of the witches" de los británicos Cradle of filth puede ser uno de los mejores álbumes de su carrera y, desde luego hay temas muy interesantes...
     Yo os quiero dejar un riff en tablatura del tema "Enshrined in crematoria" uno de los temas que utilizaron como adelanto para presentar el disco. Espero que os guste y disfrutéis.
   Un saludo.
   TabsFácil.





Enshrined in crematoria. Cradle of filth.

(0:17)

1.----------------------------------------
2.----------------------------------------
3.----------------------------------------
4.-----0-3-2--3-2-0---0----0-3-5--3h5h3h2-
5.---0--------------0----0----------------
6.----------------------------------------

1.----------------------------------------
2.----------------------------------------
3.----------------------------------------
4.---0---0-3-2--3-2-0----------------0-0-0
5.-0---0--------------0--1-1-1-1-1-1------
6.----------------------------------------

1.-------------------------------------
2.-------------------------------------
3.-------------------------------------
4.--0-0-0--2-2-2-2-2-2---------------0-
5.----------------------4-4-4-4-4-4----
6.-------------------------------------

1.----------------------------------------
2.----------------------------------------
3.----------------------------------------
4.-----0-3-2--3-2-0---0----0-3-5--3h5h3h2-
5.---0--------------0----0----------------
6.----------------------------------------

1.----------------------------------------
2.----------------------------------------
3.----------------------------------------
4.---0---0-3-2--3-2-0----------------0-0-0
5.-0---0--------------0--1-1-1-1-1-1------
6.----------------------------------------

1.----------------------------------------
2.----------------------------------------
3.----------------------------------------
4.--0-0-0--2-2-2-2-2-2----------------3-3-
5.----------------------4-4-4-4-4-4---1-1-
6.-------------------------------------...


(3:20)

1.---5-6--3-5--1-3--0-1-----------------
2.----------------------3-5--2-3--1-3---
3.------------------------------------2-
4.--------------------------------------
5.--------------------------------------
6.--------------------------------------

1.--6--5--3--1---------------1--10------
2.---8--6--5--3--5--3--2-3-5-------10-11
3.----------------6--3------------------
4.--------------------------------------
5.--------------------------------------
6.--------------------------------------

1.-----------10--------------------6--5-
2.----10--------11-10--6-5-6-----5--8--6
3.--12---12-----------------7---7-------
4.-----------------------------7--------
5.--------------------------------------
6.--------------------------------------

1.--3--1--------------------------------
2.---5--3--5-6-5------------------------
3.---------------7-6---6----------------
4.-------------------8---8--7-8-7-------
5.--------------------------------7-8-5-

6.------------------------------------...


Más tablaturas de...Cradle of filth.

No hay comentarios:

Publicar un comentario