.

banners

Tabs fácil de...Deflowering the Maidenhead,Displeasuring The Goddess.Cradle of filth.



    Otro tema de "Hammer of the witches" el último plástico de Cradle of filth, un disco a mi gusto, bastante interesante, a pesar, y lo reconozco, que no soy muy seguidor del género. "Deflowering the Maidenhead,Displeasuring The Goddess" se llama el corte y os he querido dejar un momento en tablatura que espero que os guste y disfrutéis.
   como no podía ser de otra manera, Cradle of Filth en Tablaturas fáciles.
  Un saludo.
  TabsFácil.




Deflowering the Maidenhead,Displeasuring The Goddess.
Cradle of filth.

(4:37)

(Guitarra 1)
1.-----------------------------------
2.-----------------------------------
3.-----------------------------------
4.-7---------------------------------
5.-5---------------------------------
6.-----------------------------------

1.-----------------------------------
2.-----------------------------------
3.--9--7-9-7-6--10--9-10-9-7--12--10-
4.-----------------------------------
5.-----------------------------------
6.-----------------------------------

(Guitarra 1)
1.-----------------------------------
2.-----------------------------------
3.-----------------------------------
4.-----------------------------------
5.-----------------------7-----------
6.-----------------------5-----------

1.-----------------------------------
2.-----------------------------------
3.-12-10-9--10--9-10-9-7--9--7-9-7-6-
4.-----------------------------------
5.-----------------------------------
6.-----------------------------------


1.-----------------------------------
2.-----------------------------------
3.-10--9-10-9-7--12--10-12-10-9--10--
4.-----------------------------------
5.-----------------------------------
6.-----------------------------------


1.----------
2.----------
3.-9-10-9-7-
4.----------
5.----------
6.----------

(Guitarra 1)
1.-----------------------------------
2.-----------------------------------
3.-----------------------------------
4.-5---------------------------------
5.-3---------------------------------
6.-----------------------------------

1.-----------------------------------
2.-----------------------------------
3.--9--7-9-7-6--10--9-10-9-7--12--10-
4.-----------------------------------
5.-----------------------------------
6.-----------------------------------

(Guitarra 1)
1.-----------------------------------
2.-----------------------------------
3.-----------------------------------
4.-----------------------3-----------
5.-----------------------1-----------
6.-----------------------------------

1.-----------------------------------
2.-----------------------------------
3.-12-10-9--10--9-10-9-7--9--7-9-7-6-
4.-----------------------------------
5.-----------------------------------
6.-----------------------------------

(Guitarra 1)
1.-----------------------------------
2.-----------------------------------
3.-----------------------------------
4.---------------------9-------------
5.---------------------7-------------
6.-----------------------------------

1.-----------------------------------
2.-----------------------------------
3.-10--9-10-9-7--12--10-12-10-9--10--
4.-----------------------------------
5.-----------------------------------
6.-----------------------------------


1.----------
2.----------
3.-9-10-9-7-
4.----------
5.----------
6.----------

(Guitarra 1)
1.-----------------------------------
2.-----------------------------------
3.-----------------------------------
4.-7---------------------------------
5.-5---------------------------------
6.-----------------------------------


1.-----------------------------------
2.-8--6-8-6---10--8-10-8---8--6-8-6--
3.----------7------------7----------9
4.-----------------------------------
5.-----------------------------------
6.-----------------------------------

(Guitarra 1)
1.-----------------------------------
2.-----------------------------------
3.-----------------------------------
4.-----------------------------------
5.---------------7-------------------
6.---------------5-------------------

1.-----------------------------------
2.-6-------------8--6-8-6----10--8-10
3.---9-7-9-7--------------7----------
4.-----------10----------------------
5.-----------------------------------
6.-----------------------------------

(Guitarra 1)
1.-----------------------------------
2.-----------------------------------
3.-----------------------------------
4.-----------------------------------
5.----------------------------8------
6.----------------------------6------

1.-----------------------------------
2.-8---8--6-8-6---6------------6--6-8
3.--7-----------9---9-7-9-7----------
4.--------------------------10-------
5.-----------------------------------
6.-----------------------------------


1.-----------------------------------
2.-6---10--8-10-8---13--11-13-11-----
3.---7------------7--------------14--
4.-----------------------------------
5.-----------------------------------
6.-----------------------------------

(Guitarra 1)
1.-----------------------
2.-----------------------
3.-----------------------
4.-----------------------
5.---------------------10
6.---------------------8-...


1.--------------------
2.-13--11-13-11----15-
3.--------------14----
4.--------------------
5.--------------------
6.-------------------...

Más tablaturas de...Cradle of Filth.

No hay comentarios:

Publicar un comentario en la entrada