.

banners

Tabs fácil de...Blood of Bannockburn. Sabaton.



  La banda sueca Sabaton ya tiene fecha para su próximo trabajo, "The last stand." Saldrá el 19 de Agosto como siempre bajo Nuclear Blast, y como no podía ser de otra manera ya tenemos momento tablatura fácil en tu web de Acordes y Tablaturas.
  El tema elegido para ir abriendo boca a los seguidores llama "Blood of Bannockburn" y es de este tema del que ya podéis disfrutar y aprender a tocar en tablaturas fáciles.
  Un saludo.
  TabsFácil.











Blood of Bannockburn. Sabaton.

1.------------------------------------------|
2.------------------------------------------|
3.----------9-------10-------8-------10-9-8-|
4.------------------------------------------|
5.-10-10-10---10-10----10-10---10-10--------|
6.------------------------------------------|

1.------------------------------------------|
2.------------------------------------------|
3.-------9----------------8-----------------|
4.---------------10---------------9---------|
5.-10-10---10-10----10-10---10-10---10-10---|
6.------------------------------------------|

1.----------------|
2.----------------|
3.------8---------|
4.-9-10---------9-|
5.--------10-10---|
6.----------------|

1.------------------------------------------|
2.------------------------------------------|
3.----------9-------10-------8-------10-9-8-|
4.------------------------------------------|
5.-10-10-10---10-10----10-10---10-10--------|
6.------------------------------------------|

1.------------------------------------------|
2.------------------------------------------|
3.-------9----------------8-----------------|
4.---------------10---------------9---------|
5.-10-10---10-10----10-10---10-10---10-10---|
6.------------------------------------------|

1.----------------|
2.----------------|
3.------8---------|
4.-9-10---------9-|
5.--------10-10---|
6.----------------|


(2:00)

1.-19-17-15--19-17-15--19-17-15--19-17-15-|
2.----------------------------------------|
3.----------------------------------------|
4.----------------------------------------|
5.----------------------------------------|
6.----------------------------------------|

1.-17-15-14--17-15-14--17-15-14--17-15-14-|
2.----------------------------------------|
3.----------------------------------------|
4.----------------------------------------|
5.----------------------------------------|
6.----------------------------------------|

1.-15-14-12--15-14-12--15-14-12--15-14-12-|
2.----------------------------------------|
3.----------------------------------------|
4.----------------------------------------|
5.----------------------------------------|
6.----------------------------------------|

1.-12-14-15/17--17(19)--15-14-15-14-------|
2.----------------------------------15----|
3.-------------------------------------14-|
4.----------------------------------------|
5.----------------------------------------|
6.----------------------------------------|

1.----------------------------------|
2.----------------------------------|
3.-12-11-12-11----------------------|
4.-------------12-------------------|
5.----------------10--12-10--12(14)-|
6.----------------------------------|


Más tablaturas de...Sabaton.

No hay comentarios:

Publicar un comentario