.

banners

Tabs fácil de... This means war. Avenged Sevenfold.



Del último trabajo "Hail to the king" de la banda estadounidense Avenged Sevenfold, rescatamos para tablaturas fáciles lo que fuera el primer sencillo del álbum, "This means war" un temazo y, un disco que los volvió a lanzar a lo más alto de las listas de éxitos.
  Un saludo.
  TabsFácil.




This means war. Avenged sevenfold




    Sol                                    Re#

1.-----------------------------------------------
2.----15--------------------15----16-16-15-13-11-
3.-15----15---14-15-12---15----15----------------
4.-----------------------------------------------
5.-----------------------------------------------
6.-----------------------------------------------



                                                                                          
                          Sol             Do
1.-----------------------------------------------
2.----11--------------------11----13-13-11-------
3.-12----12---12-14-12---12----12----------14-12-
4.-----------------------------------------------
5.-----------------------------------------------
6.-----------------------------------------------



     Sol                                    Re#

1.-----------------------------------------------
2.----15--------------------15----16-16-15-13-11-
3.-15----15---14-15-12---15----15----------------
4.-----------------------------------------------
5.-----------------------------------------------
6.-----------------------------------------------







                                                                                                           
                         Fa
1.--------------------------------------------------
2.----11------------------11----13-13-11------------
3.-12----12--12-14-12--12----12----------12-12/14-14
4.--------------------------------------------------
5.--------------------------------------------------
6.--------------------------------------------------


(3:43)

1.----------------------------------------------
2.-/16 16(18-15---------------------------------
3.--------------15(17)-14-14-15-17-15-14-15-14--
4.--------------------------------------------17
5.----------------------------------------------
6.----------------------------------------------




1.-------------------------------------------------
2.-------------------18-16-------------18-20-22(24)
3.----14-15-14----14-------19-20----20-------------
4.-17----------17----------------20----------------
5.-------------------------------------------------
6.-------------------------------------------------




1.---------17-18-19(20)17-/--13-17-15-13-----------
2.-20---20------------------------------16-15-13---
3.----20----------------------------------------15-
4.-------------------------------------------------
5.-------------------------------------------------
6.-------------------------------------------------




1.--------------------14-15-17-15-14-15-14-----------
2.-----------------15---------------------16-15-16-15
3.-14-15-15(17)-15-----------------------------------
4.---------------------------------------------------
5.---------------------------------------------------
6.---------------------------------------------------


Más tablaturas de... Avenged Sevenfold.

No hay comentarios:

Publicar un comentario en la entrada