.

banners

Tabs fácil de... Season of the dead. Black Sabbath.



   Será este metalero y clásico riff a lo Black Sabbath, de los últimos que podamos disfrutar de la banda?  Ó harán como otras bandas hicieran anunciando su despedida y volviendo otra vez? Habrá reunión de Tony Iommi y Toni Martin?
   Sea como fuere , de momento vamos a disfrutar y a aprender en tablaturas fáciles con el tabs fácil de el tema "Season of the dead." Sí, en tablaturas fáciles Black Sabbath.
   Un saludo.
   TabsFácil.







Season of the dead. Black Sabbath.

1.---------------------------------------|
2.---------------------------------------|
3.---------------------------------------|
4.-------8-8-11-10----------------8-8-11-|
5.-12//--6-6--9--8--9-8-7--7--8---6-6--9-|
6.------------------7-6-5--5--6----------|

1.---------------------------------------|
2.---------------------------------------|
3.---------------------------------------|
4.--10----------------8-8-11-10----------|
5.--8---9-8-7--6--4---6-6--9--8--9-8-7--7
6.------7-6-5--4--2--------------7-6-5--5

1.---------------------------------|
2.---------------------------------|
3.---------------------------------|
4.-----8-8-11-10-----------------8-|
5.-8---6-6--9--8--9-8-7---6--4---6-|
6.-6--------------7-6-5---4--2-----|...




Más tablaturas de... Black Sabbath.

No hay comentarios:

Publicar un comentario