.

banners

Tabs fácil de... Girls talk boys. 5 seconds of summer.




    Aprovechando la salida de un nuevo tema de los australianos 5 seconds of summer, en concreto "Girls talk boys" que pertenece a la banda sonora de "Cazafantasmas" película que se estrenará en Agosto, vamos a publicar en Tablaturas fáciles un momento en tablatura del tema, en concreto el que pertenece al riff principal,que,  por otro lado, está muy solicitado en vuestras peticiones.
  Esperamos que os guste. Un saludo.
  TabsFácil.





Girls talk boys. 5 seconds of summer.


1.----------------7--7--7--7--7--7--7--7-|
2.----------------8--7--8--8--7--7--7--8-|
3.----------------7--7--7--7--7--7--7--7-|
4.----------------9--7--9--9--7--7--7--9-|
5.----------/7----7--7--7--7--7--7--7--7-|
6.-3--2--1-------------------------------|


1.--7--7--7--7--7--7--7--7---12--12--12--12-|
2.--8--7--8--8--7--7--7--8---13--12--13--13-|
3.--7--7--7--7--7--7--7--7---12--12--12--12-|
4.--9--7--9--9--7--7--7--9---14--12--14--14-|
5.--7--7--7--7--7--7--7--7---12--12--12--12-|
6.------------------------------------------|

1.--12--12--12--12---12--12--12--12--12--12-|
2.--12--12--12--13---13--12--13--13--12--12-|
3.--12--12--12--12---12--12--12--12--12--12-|
4.--12--12--12--14---14--12--14--14--12--12-|
5.--12--12--12--12---12--12--12--12--12--12-|
6.------------------------------------------|

1.--12--12-|
2.--12--13-|
3.--12--12-|
4.--12--14-|
5.--12--12-|
6.---------|...




Más tablaturas de... 5 seconds of summer.

No hay comentarios:

Publicar un comentario en la entrada