.

banners

Tabs fácil de... Carolus Rex. Sabaton.



  El sexto álbum de estudio de la banda sueca, Sabaton, llevaba por nombre "Carolus Rex."
  Salía por el año 2012 y nos dejaba pedazo de temas como éste, "Carolus Rex" que daba nombre al disco y del que os quiero dejar unos momentos en tablatura fácil para que disfrutéis con la guitarra de esta fenomenal banda.
  Un saludo.
  TabsFácil.




Carolus rex. Sabaton.

(0:27)
1.-----------------------------------------
2.-----------------------------------------
3.-----------------------------------------
4.---------5-----------5---------3---5-5-5/
5.---3-3---3---6-6-6---3---3-3---1---3-3-3/
6.---3-3-------4-4-4-------1-1-------------

(0:37)
1.-----------------------------------------
2.-----------------------------------------
3.-----------------------------------------
4.---------5-----------5---------3---------
5.---3-3---3---6-6-6---3---3-3---1---/6-5-3
6.---3-3-------4-4-4-------1-1-------------

(1:15)
1.------------------------------------------------
2.------------------------------------------------
3.------------------------------------------------
4.------------------------------------------------
5.-----------------1-1-1-1-1-1-1-1----------------
6.-1-1-1-1-1-1-1-1-----------------3-3-3-3-3-3-3-3



1.---------------------------------------------
2.---------------------------------------------
3.---------------------------------------------
4.---------------------------------------------
5.-3-3-3-3-3-3-3-3---3-3-3-6---3-3-3-5---3-3-3-
6.---------------------------------------------

1.----------------
2.----------------
3.----------------
4.----------------
5.-5-5-5-5-5-5-5-5
6.-3-3-3-3-3-3-3-3

Solo (3:43)
1.---------------------------------------AH--------
2.-16-16-15-16----18-18-16-18------------8(9)(8)---
3.-------------15-------------19---5-7-8----------7
4.-------------------------------------------------
5.-------------------------------------------------
6.-------------------------------------------------

1.-------------------------------------------------
2.----------------------------11---9-8-------------
3.----------(vibrato)---5-7-8----------8---10-12-10
4.-8-8/10---(vibrato)------------------------------
5.-------------------------------------------------
6.-------------------------------------------------

1.--------------------------------------------------
2.-15(16)-15-13-15-15(16)-16-13----13---------------
3.------------------------------15----15-12-15-12---
4.------------------------------------------------15
5.--------------------------------------------------
6.--------------------------------------------------

1.-------------------------------------------------
2.--------------------------------18-20-18----18---
3.-12----------------------19-20-----------20----20
4.----15-13-15-13-12-------------------------------
5.-------------------15----------------------------
6.-------------------------------------------------

1.--------------------------------------------------
2.--------------------------15-16-18-19(20)-(20)(19)
3.-19-20-19-17-19-17-15-17--------------------------
4.--------------------------------------------------
5.--------------------------------------------------
6.--------------------------------------------------

1.-----------
2.---16-18---
3.-----------
4.-----------
5.-----------
6.-----------



Más tablaturas de... Sabaton.

No hay comentarios:

Publicar un comentario en la entrada