.

banners

Tablatura fácil de...To hell and back. Sabaton.



  "Heroes" llevaba por título el hasta ahora último trabajo de la banda Sabaton. Y también de este álbum vamos a rescatar algunos pedazos en tablatura, como es el caso del tema "To hell and back" del que como siempre os decimos, esperamos que os guste y disfrutéis.
  Recuerda que puedes disfrutar de Sabaton en tabsfáciles en los siguientes enlaces:
  Un saludo.
  TabsFácil.






                 

 To hell and back. Sabaton.

Guit. 1.
1.----------------------------------------------
2.----------------------------------------------
3.---2--------------2-----2-2-2-2--2-2-2--2-2-2-
4.-2-0--------2-5-2-0---2-0-0-0-0--0-0-0--0-0-0-
5.-0----3-3---0-3-0-----0-----------------------
6.------1-1-------------------------------------


1.------------------------------------------
2.------------------------------------------
3.-5-5-5---5-5-5---5-5-5---5-5-5------------
4.-3-3-3---3-3-3---3-3-3---3-3-3---2--2-2-2-
5.---------------------------------0--0-0-0-
6.------------------------------------------


1.---------------------------------------
2.---------------------------------------
3.---------------------------2---2-2-2---
4.---5---5-5-5---2---2-2-2---0---0-0-0---
5.---3---3-3-3---0---0-0-0---------------
6.---------------------------------------


Guit. 2.
1.--------------------------------------------
2.-----------------------------------------10-
3.--------------------------------------10----
4.----12---12h10h12--12h10h12--12h10h12-------
5.-12-----------------------------------------
6.--------------------------------------------


1.--------------------------------------------------
2.-------10-13h10----10---13h10---------------------
3.-10h12----------12------------12-9--9-9h10h9------
4.---------------------------------------------10-12
5.--------------------------------------------------
6.--------------------------------------------------

Más tablaturas de... Sabaton.

No hay comentarios:

Publicar un comentario