.

banners

Tablatura fácil de...Perdido en el paraiso. Tierra Santa.




  Aprovechando  la publicación en Tablaturas fáciles de momentos en tablatura de Tierra Santa, vamos a incluir otro, el correspondiente al tema, "Perdidos en el paraíso" del que espero como siempre que os guste y lo disfrutéis.
  Un saludo.
  TabsFácil.




Perdido en el paraíso. Tierra Santa



LA                            FA

1.----12-10-------12-10---------------10-12-10------
2.-13-------12-13-------12-13---12-13----------12-13
3.--------------------------------------------------
4.--------------------------------------------------
5.--------------------------------------------------
6.--------------------------------------------------



LA                         SOL

1.---12-10-------12-10---------
2.---------12-13-------12-12---
3.-----------------------------
4.-----------------------------
5.-----------------------------
6.-----------------------------



FA                            LA                SOL

1.----12-10-------12-10---------------10-12-10----12
2.-13-------12-13-------12-13---12-13----------13---
3.--------------------------------------------------
4.--------------------------------------------------
5.--------------------------------------------------
6.--------------------------------------------------









           FA        SOL      LA

1.---10----------12-10-12-13-13-
2.---------12-13----------------
3.------------------------------
4.------------------------------
5.------------------------------
6.------------------------------




Más tablaturas de... Tierra Santa.

No hay comentarios:

Publicar un comentario