.

banners

Tablatura fácil de...Gladiadora. Manolo García.



  Cerramos en tablaturas fáciles el mes de Julio con la sorpresa de que Manolo García presentaba hace poquito un nuevo single "Gladiadora" y del que no queríamos dejar de acercaros unos momentos en tablatura para guitarra, en concreto del inicio del tema, un riff refrescante y que hará las delicias de los que sigáis al artista y toquéis la guitarra.
  Un saludo.
  TabsFácil.









Gladiadora. Manolo García.

1.---------------------------------|
2.----------3-/6-------------------|
3.----2-/5--------3-3/5--3-2---2/3-|
4.-3-------------------------5-----|
5.---------------------------------|
6.---------------------------------|

1.--------------------|
2.--------------------|
3.-3-3--3/5--3-2------|
4.----------------5-3-|
5.--------------------|
6.--------------------|...


Fa
  Una saeta de plumas

       Rem
que acierta cuando me miras

La#m
y tu cuerpo lánguido...



Más tablaturas de... Manolo García.

No hay comentarios:

Publicar un comentario en la entrada