.

banners

Tablatura fácil de... Vestige. Moi dix mois.



  En Tablaturas fáciles hoy hacemos un hueco al metal japonés, en este caso a la banda Moi dix mois en su vertiente más gótica con unos momentos en tablatura del tema "Vestige" perteneciente al álbum de 2004 "Nocturnal Opera."
  Un saludo.
  TabsFácil.




Vestige. Moi dix mois.

   (0:47)
1.--------------------------------------|
2.--------------------------------------|
3.--------------------------------------|
4.-/7-5-3-2-3--/5-3------/7-3-6--9-7--8-|
5.------------------5-7-----------------|
6.--------------------------------------|


  (1:40)

1.---------------------------------|
2.---------------------------------|
3.---------------------------------|
4.-/7-5-3-2-3--/5-3------/7-3-6--9-|
5.------------------5-7------------|
6.---------------------------------|

1.-------------------------------------|

2.-------------------------------------|
3.-------------------------------------|
4.-7-5-3-2-3--/5-3------/7-3-6--9-7--8-|
5.------------------5-7----------------|
6.-------------------------------------|


   (3:34)

1.-------------------------------|
2.-------------------------------|
3.-------------------------------|
4.-9-7-5-4-5--7-5------9-5-8--11-|
5.----------------7-9------------|
6.-------------------------------|

1.-------------------------------|

2.-------------------------------|
3.-------------------------------|
4.-9-7-5-4-5--7-5------9-5-8--11-|
5.----------------7-9------------|
6.-------------------------------|




Más tablaturas de... Moi dix mois.

No hay comentarios:

Publicar un comentario