.

banners

Tablatura fácil de... Venganza. Warcry.



 Os dejo unos momentos en tablatura fácil de otro tema del hasta ahora último trabajo de Warcry, fabulosa banda nacional y muy buen disco que rebosa heavy metal por los cuatro costados.
   Espero que disfrutéis de los tabs fáciles, o por lo menos de la escucha que merece la pena muy mucho.
  Un saludo.
  TabsFácil.





Venganza. Warcry.

(Guitarra 1).
1.-------------------------------------------------
2.-------------------------------------------------
3.-------------------------------------------------
4.-------------------------------------------------
5.-10---10---10---10---10--10--10--10---10--10--10-
6.--8----8----8----8---8---8---8---8----8---8---8-...

(Guitarra 2).
1.--------------------------------------------------
2.--------------------------------------------------
3.--------------------------------------------------
4.-5-5---5-5--5-5---5-5---5-5--5/6---5-5---5-5--5-5-
5.-3-3---3-3--3-3---3-3---3-3--3/4---3-3---3-3--3-3-
6.--------------------------------------------------

                     (0:19) "Me devora el miedo...
1.------------------------------------------------
2.------------------------------------------------
3.------------------------------------------------
4.-3--5-5--5-5--6-6--5-5--5-5---5-5---5-5---6-5---
5.-1--3-3--3-3--4-4--3-3--3-3---3-3---3-3---4-3-6-
6.----------------------------------------------4-

1.--------------------------------------------------
2.--------------------------------------------------
3.--------------------------------------------------
4.-3---3-5-6-5---3-----6-5---5-5---6-6--5-5--5-5--3-
5.-1---1-3-4-3-6-1---6-4-3---3-3---4-4--3-3--3-3--1-
6.-------------4-----4------------------------------

1.-----------------------------------------------
2.-----------------------------------------------
3.-----------------------------------------------
4.-5-5---6-6---6-5---3---3-5-6-5---3---3-5-------
5.-3-3---4-4---4-3-6-1---1-3-4-3-6-1---1-3-6---5-
6.-----------------4-------------4---------4---3-

( 0:57 )
1.-----------------------------------------------
2.-----------------------------------------------
3.-----------------------------------------------
4.-----8---6---5-------5---5-5-5-5-5-5-5-5---5-5-
5.-3---6---4---3---3---3---3-3-3-3-3-3-3-3---3-3-
6.-1---------------1-----------------------------

(2:15) (piano).
1.--------------------------------------------
2.-9--9--8--------------6--8-----8--11--9---9-
3.----------8--6--8--5--------8---------------
4.--------------------------------------------
5.--------------------------------------------
6.--------------------------------------------

1.---------------------------------------------
2.-6---8---5---9-------------------------------
3.---------------10----10---12---9-------------
4.------------------10-------------10----------
5.-------------------------------------13---11-
6.---------------------------------------------

Más tablaturas de...Warcry.

No hay comentarios:

Publicar un comentario en la entrada