.

banners

tablatura fácil de... Sólo se vive una vez. Tierra Santa.




 El noveno álbum y último de estudio de la banda riojana Tierra Santa llevaba por título "Mi nombre será leyenda," y hoy queremos dejaros en tablaturas fáciles algunos momentos en tablatura de alguno de sus temas como es el caso de este "Sólo se vive una vez" con el que esperamos que disfrutéis.
  Un saludo.
  TabsFácil.



 Solo se vive una vez. Tierra Santa.



(guitarra 1)

1.---7------------------------3-----------------5---
2.---7------------------------3-----------------5---
3.---9------------------------5-----------------7---
4.---9------------------------5-----------------7---
5.---7------------------------3-----------------5---
6.--------------------------------------------------



(guitarra 2)

1.---------------------------------------------------
2.---8---7---7-8---8---7---7-8----8----7----7-8---8--
3.---------------------------------------------------
4.-9---9---9-----9---9---9-----10---10---10-----7---7
5.---------------------------------------------------
6.---------------------------------------------------



1.------------
2.---7----7-8-
3.------------
4.------------
5.------7-----
6.------------





(guitarra 1)

1.-7--------------------------3-----------------5---
2.-7--------------------------3-----------------5---
3.-9--------------------------5-----------------7---
4.-9--------------------------5-----------------7---
5.-7--------------------------3-----------------5---
6.--------------------------------------------------



(guitarra 2)

1.---------------------------------------------------
2.---8---7---7-8---8---7---7-8----8----7----7-8---8--
3.---------------------------------------------------
4.-9---9---9-----9---9---9-----10---10---10-----7---7
5.---------------------------------------------------
6.---------------------------------------------------



1.---------------
2.---7----7-8----
3.-------------7-
4.---------------
5.------7--------
6.---------------





(0:30) guitarra 1

1.-----------------------------------------------
2.-----------------------------------------------
3.-----------------------------------------------
4.-----------------------------------------------
5.-7-7---7-7-7---7-7---7-7-7---7-7-7---7-7-7-7-7-
6.-----------------------------------------------



1.--------------------------------------------------
2.--------------------------------------------------
3.--------------------------------------------------
4.-------------------------------------------------5
5.-7-7-7-7-7--7-7-7--5-5--5-5-5--5-5-5-5-5---5-5-5-3
6.--------------------------------------------------



Guitarra 2

1.---------------------------------------------------
2.---------------------------------------------------
3.---------------------------------------------------
4.-2--4/5----5-4-5-7-5-4------4/5--4--5-4-5-7-5-4----
5.-------3---------------5-7--------3-------------5-7
6.---------------------------------------------------





(0:52)  “Cuando los sueños…    (1:15)

1.---------------------------------------------------
2.----------------------------8-7-8---8-7-8-10-8-7-8-
3.--------------------------9-------9----------------
4.-9-----7-----5-----7-------------------------------
5.-7-----5-----3-----5-------------------------------
6.---------------------------------------------------



1.---------------------------------------------------
2.---8-7-8---8-7-8-10-8-7-8---8-7-8---8-7-8-10-8-7-8-
3.-9-------9----------------9-------9----------------
4.---------------------------------------------------
5.---------------------------------------------------
6.---------------------------------------------------



1.----------------------------
2.-----8-7-8---8-7-8-10-8-7---
3.---9-------9--------------9-
4.----------------------------
5.----------------------------
6.----------------------------



(1:49)  “Hay un grito…

1.----------------------------------------------
2.----------------------------------------------
3.----------------------------------------------
4.-5---5-5-5---5-5---4---2---7--7-7-7--7-7--5--4
5.-3---3-3-3---3-3---3---3---5--5-5-5--5-5--5--5
6.----------------------------------------------


(2:00)   “Porque vivir…

1.-------------------------------------------
2.---8---7---7-8---8---7---7-8---8---7---7-8-
3.-7---7---7-----7---7---7-----7---7---7-----
4.-------------------------------------------
5.-------------------------------------------
6.-------------------------------------------. . .

Más tablaturas de...Tierra Santa.

No hay comentarios:

Publicar un comentario