.

banners

Tablatura fácil de... Road of resistance. Baby metal.



  Poco o nada conocía yo de este estilo el kawaii metal, mezcla de heavy metal y j-pop que practican las Baby metal. En realidad las he descubierto al enterarme que habían colaborado con ellas en algunos temas miembros de Dragonforce, grupo desde luego para mí mucho más conocido.
   No obstante os presento aquí un momento en tablatura fácil de su penúltimo plástico,  unos momentos en tablatura de "Road of resistance", último single lanzado al mercado del disco.
    Un saludo.
    TabsFácil.






"Road of resistance" Baby metal.

1.----------------------------------------
2.---/17-16--------------/17-16-----17-19-
3.----------16--------16--------16--------
4.-------------18-16----------------------
5.----------------------------------------
6.----------------------------------------

1.-----------------------------------------
2.--21--21-19-17--19/21--19--17--19(21)(19)
3.-----------------------------------------
4.-----------------------------------------
5.-----------------------------------------
6.-----------------------------------------

1.----------------------------------------
2.---/17-16--------------/17-16-----17-19-
3.----------16--------16--------16--------
4.-------------18-16----------------------
5.----------------------------------------
6.----------------------------------------

1.-----------------------------------------
2.--21--21-19-17--19/21--19--17--19(21)(19)
3.-----------------------------------------
4.-----------------------------------------
5.-----------------------------------------
6.--------------------------------------...

  (3:35)
1.----------------------------------------
2.------14---------------------14---------
3.---11----13--11-13-15-13--11----13--11--
4.----------------------------------------
5.----------------------------------------
6.----------------------------------------


1.--------------------------------
2.--------12-----------------9----
3.--13-15----15-13-11--13-11---11-
4.--------------------------------
5.--------------------------------
6.-------------------------------...

Más tablaturas de... Baby metal.

No hay comentarios:

Publicar un comentario en la entrada