.

banners

Tablatura fácil de... Pedestrian at best. Courtney Barnett.



  Elegida como la mejor canción del 2015 por la revista Rolling Stone,  y es que esta joven australiana, Courtne Barnett,  se está convirtiendo en una autentica novedad de frescura y talento en el mundo del rock, tan saturado a veces.
  Aspecto sencillo e irreverente, añadido a su música, un rock de garaje, básico pero a la vez fresco y muy bien hecho y unas letras que convierten a su alrededor en su pequeño mundo, la mezcla ideal para convertirse en toda una estrella mundial...
  Os quiero dejar un momento en tablatura del tema "Pedestrian at best" que espero que disfrutéis y os guste.
  Un saludo.
  TabsFácil.





Pedestrian at best. Courtney Barnett.


 Guitarra 1.
1.---------------------------------
2.---------------------------------
3.---------------------------------
4.---------------------------------
5.---4--2-4--2-4--2-4-2-2--4--2-4--
6.---2--0-2--0-2--0-2-0-0--2--0-2--

1.----------------
2.----------------
3.----------------
4.----------------
5.--2-4--2-4-2-2--
6.--0-2--0-2-0-0--...

Guitarra 2.
1.----------------------------
2.----------------------------
3.---11--9h11--9h11--9h11h9-9-
4.----------------------------
5.----------------------------
6.----------------------------

1.-----------------------
2.-----------------------
3.--9--8h9--6h8--4h6h4-4-
4.-----------------------
5.-----------------------
6.-----------------------...

Más tablaturas de...Courtney Barnett.

No hay comentarios:

Publicar un comentario en la entrada