.

banners

Tablatura fácil de... March of the poozers. Devin townsend project.



 A mediados de Noviembre salía un DVD con la grabación del concierto dado en el Royal Albert Hall de Londres por el polifacético guitarrista y compositor Devin Townsed Project.
  La verdad es que no conocía mucho sobre este artista, pero tengo que reconocer que me gusta todo lo que he ido escuchando estos días y es por eso que hoy os quiero dejar unos momentos en tablatura de uno de los temas que se tocaron en el concierto.
  Hoy en tablaturas fáciles, Devin Townsend.
  Un saludo.
  TabsFácil.




March of the poozers. Devin Townsend project.


1.------------------------------------
2.------------------------------------
3.------------------------------------
4.--------4-4-------------------------
5.-2--2-2-----5-5-5-5-4-4-4-4--2--2-2-
6.------------------------------------

1.------------------------------------
2.------------------------------------
3.------------------------------------
4.--4-4-------------------------4-4---
5.------5-5-5-5-4-4-4-4--2--2-2-----5-
6.------------------------------------

1.------------------------------------
2.------------------------------------
3.------------------------------------
4.------------------------4-4---------
5.--5-5-5-4-4-4-4--5--5-5-----5-5-5-5-
6.------------------------------------

1.----------
2.----------
3.----------
4.----------
5.--4-4-4-4-
6.----------...

1.------------------------------------
2.------------------------------------
3.------------------------------------
4.--------4-4-------------------------
5.-2--2-2-----5-5-5-5-4-4-4-4--2--2-2-
6.------------------------------------

1.------------------------------------
2.------------------------------------
3.------------------------------------
4.--4-4-------------------------4-4---
5.------5-5-5-5-4-4-4-4--2--2-2-----5-
6.------------------------------------

1.------------------------------------
2.------------------------------------
3.------------------------------------
4.------------------------4-4---------
5.--5-5-5-4-4-4-4--5--5-5-----5-5-5-5-
6.------------------------------------

1.----------
2.----------
3.----------
4.----------
5.--4-4-4-4-
6.----------...


(0:35)
1.------------------------------------
2.------------------------------------
3.------------------------------------
4.-4-4--4-4--7--4-4--4-4--7--4-4--4-4-
5.-2-2--2-2--5--2-2--2-2--5--2-2--2-2-
6.------------------------------------

1.-----------------------------------
2.-----------------------------------
3.-----------------------------------
4.--7------4-4-----4-4-----4-4--3-3--
5.--5--5-5-----5-5-----4-4-----------
6.-----------------------------------


1.---------
2.---------
3.---------
4.--2-2--4-
5.-------2-
6.---------...

Más tablaturas de... Devin Townsend.

No hay comentarios:

Publicar un comentario en la entrada