.

banners

Tablatura fácil de... Last runaway. W.A.S.P.



 Otra banda que regresaba al panorama musical aunque no lo hacía con los miembros originales pero si con su carismático vocalista Blackie Lawless. El álbum se llamaba "Golgotha", y salía en Octubre pasado, convirtiéndose en el 15º trabajo discográfico de la banda.
    Del tema adelanto, "Last runaway" os he dejado un pequeño momento en tablatura fácil del comienzo del tema para que lo disfrutéis. 
 W.A.S.P en www.tabsfacil.es.
   Un saludo.
   TabsFácil.





Last runaway. W.A.S.P.

1.-----------------------------------
2.----------------------0-0-0-0------
3.------4-3-2--4--2-------------1----
4.-------------------4---------------
5.---4---------------2-------------4-
6.---2-----------------------------2-

1.-------------------------------
2.------------------0-0-0-0------
3.--4-3-2--4--2-------------1----
4.---------------4---------------
5.---------------2-------------4-
6.-----------------------------2-...


Más tablaturas de...W.A.S.P.

No hay comentarios:

Publicar un comentario en la entrada