.

banners

Tablatura fácil de... Huelo el miedo. Warcry. (Cover).



  Esta introducción a piano suena genial, bueno, como todo el disco de los asturianos Warcry.
   Aquí os dejo un pequeño covers en tablatura fácil de esta maravillosa introducción para que os animéis a tocarlo y trabajar con el en vuestras interpretaciones o aprendizaje.
   Un saludo.
   TabsFácil.




Huelo el miedo. Warcry. (Covers para guitarra).


1.-----------------------------------------------
2.------8---6---4---3----------------------3-4-3-
3.----------------------5---3---2------3-5-------
4.----5---5---5---5---5---5---5---4-5------------
5.-5---------------------------------------------
6.-3---------------------------------------------

1.-------------------------------------------------
2.-----------------11-11-11-11-11---10-10-10-10-10-
3.-5-3-5-3-2---------------------------------------
4.-------------------------------------------------
5.-------------8-----------------------------------
6.-------------6-----------------------------------

1.-----------------------------------------------
2.-8-8-8-8-8---6-6-6-6-6---4-4-4-4-4---3-3-3-3-3-
3.-----------------------------------------------
4.-----------------------------------------------
5.-----------------------------------------------
6.-----------------------------------------------

1.-----------------------------8-10-8-------
2.-4-4-4-4-4---/6--------10-11--------11-10-
3.-----------------10-12--------------------
4.------------------------------------------
5.------------------------------------------
6.------------------------------------------

1.----------------------------------------------
2.----------------------------------------------
3.-3-3---3/-5---5/7-7---7/8---5-7---3-3---3/5-5-
4.----------------------------------------------
5.----------------------------------------------
6.----------------------------------------------

1.---------------------------------------------
2.---------------------------------------------
3.-5/7-7--7/10--8-7--5/7-7--7-7/8-8--8-8/10-10-
4.---------------------------------------------
5.---------------------------------------------
6.---------------------------------------------

1.------------------------------------------------
2.------------------------------------------------
3.-10-10--8-7-5--3-3--3/5-5--5-5/7-7--7-7&8---5-7-
4.------------------------------------------------
5.------------------------------------------------
6.---------------------------------------------...


Más tablaturas de...Warcry.

No hay comentarios:

Publicar un comentario en la entrada