.

banners

Tablatura fácil de... Guerra mundial. Leiva.



     Vamos desgranando poco a poco "Monstruos" el próximo trabajo de Leiva, un disco esperadísimo y que por lo que llevamos escuchado, ya hemos escuchado y aprendido a tocar "Sincericidio," rebosa sonido Leiva por los cuatro costados.
  Aquí os dejo unos momentos en tablatura  del tema "Guerra mundial" que espero como siempre que os guste.
  Un saludo.
  TabsFácil.








Guerra mundial. Leiva.


1.------------------------------|
2.------------------------------|
3.------------------------------|
4.------------------------------|
5.-6-6--6-6--6-6--6-6--6-6--6-6-|
6.------------------------------|

                                    "Después...
1.------------------------------|
2.------------------------------|
3.------------------------------|
4.------------------------------|
5.-6-6--6-6--6-6--6-6--6-6--6-6-|
6.------------------------------|

1.-----------------------------------|
2.-----------------------------------|
3.-----------------------------------|
4.-4-4--4-4--4-4--4-4----------------|
5.---------------------4-4--4-4--4-4-|
6.-----------------------------------|

1.-----------------------------------|
2.-----------------------------------|
3.-----------------------------------|
4.------6-6--6-6--6-6--6-6-----------|
5.-4-4----------------------6-6--6-6-|
6.-----------------------------------|

1.-----------------------------------|
2.-----------------------------------|
3.-----------------------------------|
4.-----------4-4--4-4--4-4--4-4------|
5.-6-6--6-6----------------------4-4-|
6.-----------------------------------|

1.-----------------------------------|
2.-----------------------------------|
3.-----------------------------------|
4.----------------6-6--6-6--6-6--6-6-|
5.-4-4--4-4--4-4---------------------|
6.-----------------------------------|

1.------------------------------------|
2.------------------------------------|
3.----------------------6-6--6-6--6-6-|
4.------------------------------------|
5.-6-6--6-6--6-6--6-6-----------------|
6.------------------------------------|

1.-----------------------------------|
2.-----------------------------------|
3.-6-6-------------------------------|
4.--------------------------8-8--8-8-|
5.------9-9--9-9--9-9--9-9-----------|
6.-----------------------------------|

1.-----------------------------------|
2.-----------------------------------|
3.-------------------------------6-6-|
4.-8-8--8-8--------------------------|
5.-----------6-6--6-6--6-6--6-6------|
6.-----------------------------------|

1.--------------------------------------|
2.--------------------------------------|
3.-6-6--6-6--6-6--6-6-------------------|
4.--------------------------------------|
5.---------------------9-9--9-9--9-9----|
6.--------------------------------------|

1.--------------------------------------|
2.--------------------------------------|
3.--------------------------------------|
4.------8-8--8-8--8-8--8-8---8-8--8-8---|
5.-9-9----------------------------------|
6.--------------------------------------|

                                    (0:57)
1.--------------------------------------|
2.-------------4----4--------4------4---|
3.-------------3--3---3----3------3---3-|
4.-8-8--8-8----1---------0--------------|
5.------------------------------3-------|
6.--------------------------------------|


1.---------------------------------------|
2.-----4------4--------4------4--------4-|
3.---3------3---3----3------3---3----3---|
4.---------------------------------------|
5.-1-------------------------------1-----|
6.--------4--------3------1--------------|

1.---------------------------|
2.--4----4--------4------4---|
3.--3--3---3----3------3---3-|
4.--1---------0--------------|
5.-------------------3-------|
6.---------------------------|


1.---------------------------------------|
2.-----4------4--------4------4--------4-|
3.---3------3---3----3------3---3----3---|
4.---------------------------------------|
5.-1-------------------------------1-----|
6.--------4--------3------1--------------|


1.--------------------------------------|
2.--------------------------------------|
3.--------------------------------------|
4.--------------------6-6--6-6----------|
5.-6-6--6-6--9-9--9-9----------9-9--9-9-|
6.--------------------------------------|







Más tablaturas de... Leiva.

No hay comentarios:

Publicar un comentario