.

banners

Acordes y tablatura fácil de... Send my love. Adele.



  Nunca falta en tablatura fáciles Adele, aunque no tenga mucho que ver con el mundo de la guitarra, pero es que sentimos debilidad por la artista, de la que os queremos dejar acordes y momento en tablatura de su último sencillo "Send my love."
  Esperamos que os guste y disfrutéis.
  Un saludo.
  TabsFácil.




Send my love. Adele.

1.------------------------------------|
2.------------------------------------|
3.---7----------7---------7---------7-|
4.------------------------------------|
5.-5---0-5-7-5----0-5-7-5---0-5-7-5---|
6.------------------------------------|

1.-------------------------------------|

2.-------------------------------------|
3.----------4----------4---------4-----|
4.-------------------------------------|
5.-0-5-7------0-5-7------0-5-7-----0-5-|
6.-------7----------7----------7-------|

1.-------------------|
2.-------------------|
3.-----4-----------7-|
4.-------------------|
5.-7-------0-5-7-5---|
6.---7---------------|...


Re
Send my love to your new lover


treat her better.


Sim

We've gotta let go of all of our ghosts


we both know we ain't kids no more


Re

Send my love to your new lover


treat her better.


Sim

We've gotta let go of all of our ghosts


we both know we ain't kids no more




Más tablaturas de...Adele.

No hay comentarios:

Publicar un comentario en la entrada