.

banners

Acordes y tablatura fácil de... La manada. Ariel Rot.



“El disco de rock que todos estábamos esperando y que vuelve a demostrar por qué Ariel Rot es un artista que ha tenido éxito en todas sus etapas musicales."
  Con estas palabras se anunciaba hace apenas unos días, la salida para Septiembre del próximo trabajo de Ariel Rot.
  Llevará por título "La manada" y aunque apenas nos adelanta unos instantes de alguno de sus temas, en tablaturas fáciles hemos querido ir abriendo boca y sacar algunos acordes y momento tabs fácil de esos escasos segundos de los que podemos aún disfrutar.
  Un saludo.
  TabsFácil.




La manada. Ariel Rot.

1.---------5-----------7--7/8-8--7-7-5-5-|
2.-----5-7--7------7-9-------------------|
3.-4/6---------7/8-----------------------|
4.---------------------------------------|
5.---------------------------------------|
6.---------------------------------------|

1.-3-5----------------------5------------7
2.------7(8)(7)5--------5-7---7------7-9--|
3.---------------4(5)-6----------7/8------|
4.----------------------------------------|
5.----------------------------------------|
6.-------------------------------------|...


LaM                          SiM
La última estrella del cielo

ReM                          LaM
nos está diciendo adiós.

                                 SiM
Todos se fueron marchando

ReM                          LaM
sólo quedamos los dos.

SiM                 LaM
Sólo quedamos los.

SiM                 LaM
Sólo quedamos tú y yo...




Más tablaturas de...Ariel Rot.

No hay comentarios:

Publicar un comentario