.

banners

Acordes y tablatura fácil de... El canto de las sirenas. Tierra santa.




  El mes de Febrero de 2014 estuvo repleto de novedades o de adelanto de novedades, una de ellas le perteneció a Tierra santa uno de esos grupos que crearon escuela en su día y que hoy por hoy siguen sonando fenomenal. Aquí os dejo mi tabscripción, los acordes de este clásico en acústico que espero que disfrutéis. Como siempre un saludo y hasta la próxima.
  TabsFácil.



El canto de las sirenas. Tierra santa. Acústico



MIm
Buscando senderos de gloria
         RE
viajan los sueños que nacen en mí.
DO
Perdidos en el horizonte
        SIm
donde la magia nunca debe morir.
MIm
Allí se esconde un hechizo
     RE
entre las notas de un bello cantar.
   LAm
donde la voz de las sirenas
     SIm
se funde con el mar.
DO                      RE
Sus ojos son como estrellas
    MIm
que brillan en la oscuridad.
DO                 RE           MIm
Tocar su mano es poder tocar el cielo.
DO                  RE
Su dulce canto me atrapa
DO                    RE
su voz me guía hacia allí.

DO               RE     DO               RE
Más allá de las nubes allí donde quise vivir.
MIm                  RE
Quiero huir lejos de tus engaños.
MIm                  RE
Fingir que mi sueño acabó.
MIm                        RE
Maldecir el embrujo de tus encantos
DO                    MIm
y comenzar de nuevo a vivir.


(solo) 1:22
1.-----------------------------------------------
2.-----------8h7---------------8h7---------------
3.-------7-9-----9-7------7-9------9h7-7h9-------
4.---7h9--------------9h7-------------------7(9)-
5.-----------------------------------------------
6.-----------------------------------------------

1.-------------------------------------------
2.-------------------------------------------
3.-------------------------------------------
4.---(7)-5-7h5-7/9---7(9)(7)-5-7h5-----------
5.---------------------------------7-5-5-7---
6.-------------------------------------------

1.------------------------------10------------
2.---------8h7-----7-10(12)(10)----10h8-8-7-8-
3.-------7-----9h7----------------------------
4.---7h9--------------------------------------
5.--------------------------------------------
6.--------------------------------------------

1.---10h12-12h10-----------------------------------
2.---------------12h10-12-10h8h7-----7-8-8h7-------
3.-------------------------------7h9---------9-7/9-
4.-------------------------------------------------
5.-------------------------------------------------
6.--------------------------------------------------


MIm
Envuelto en un manto de seda
RE
buscando la llama de la pasión,
DO
llegué embrujado a mi destino,
SIm
perdí la cordura y la razón.
MIm
Quise escapar de su canto
RE
más nunca pude imaginar
LAm
que si un día yo parto
SIm
su canto por siempre morirá.
DO                      RE
Sus ojos son como estrellas
    MIm
que brillan en la oscuridad.
DO                 RE           MIm
Tocar su mano es poder tocar el cielo.
DO                     RE
Y aunque su canto me atrape
DO                RE
debo marcharme de allí,
DO                   RE
donde se esconde el hechizo
DO                RE
que no me deja vivir.
MIm                  RE
Quiero huir lejos de tus engaños.
MIm                  RE
Fingir que mi sueño acabó.
MIm                        RE
Maldecir el embrujo de tus encantos
DO                    MIm

y comenzar de nuevo a vivir.

Más tablaturas de... Tierra Santa.

No hay comentarios:

Publicar un comentario