.

banners

Tabs fácil de...Two of spades. Ensiferum.



 Folk y Viking metal a raudales en los trabajos de una banda con sus añitos de existencia. Todo un referente los vikingos Ensiferum, de los cuales, os quiero dejar hoy un momento en tablatura de otro corte del plástico, "Two of spaces" en concreto el riff de inicio,  que espero, como siempre, que os guste y lo disfrutéis.
  Un saludo.
  Tabs Fácil.




Two of spades. Ensiferum.

1.-----------------------------------
2.----------4h3------------4h3-------
3.---5--5-5-----5h3h5--5-5-----5h3-6-
4.-----------------------------------
5.-----------------------------------
6.-----------------------------------

1.-------4h3--------------------------
2.---6-6-----6-4-3----------4h3-------
3.-----------------5-3--5-5-----5h3h5-
4.------------------------------------
5.------------------------------------
6.---------------------------------...

Más tablaturas de...Ensiferum.

No hay comentarios:

Publicar un comentario