.

banners

Tabs fácil de...One man army. Ensiferum.



 Con sus ya casi 20 años de carrera, Ensiferum, grupo de culto para los amantes del folk y viking metal nos anunciaban nuevo disco, el sexto, para Febrero del año pasado. "One man army."
  Unos días antes, nos adelantaban un tema  del disco, en concreto el que lleva el mismo nombre que el título y del cual os quiero dejar un riff en tablatura fácil que espero que os guste y lo disfrutéis como yo lo he hecho.
  Hoy en Tablaturas fáciles, Ensiferum.
   Un saludo.
   Tabsfácil.








One man army. Ensiferum.

(0:22)
1.-------------------------|
2.-------------------------|
3.-------------------------|
4.---5--5-4-2--5--4-2------|
5.--------------------5-2--|
6.-------------------------|

1.-------------------------|
2.-------------------------|
3.-------------------------|
4.---5--5-4-2--5--4-2------|
5.--------------------5-2--|
6.-------------------------|

1.-------------------------|
2.-------------------------|
3.-------------------------|
4.---5--5-4-2--5--4-2------|
5.--------------------5-2--|
6.-------------------------|


1.------------------------------|
2.------------------------------|
3.-------------0-2-4--4-2-0-----|
4.---5--5-4-2---------------2-4-|
5.------------------------------|
6.---------------------------...

Más tablaturas de... Ensiferum.

No hay comentarios:

Publicar un comentario en la entrada