.

banners

Tabs fácil de...I won't give in. Asking Alexandria.



 Con el tema "I won't give in" la banda Asking Alexandria nos presentaba hace cosa de un año, nuevo cantante y nos adelantaba un tema de lo que sería su nuevo trabajo que, ya lleva unos meses en la calle...
    Os quiero dejar para finalizar la semana unos momentos en tablatura del tema, que espero como siempre que os guste y disfrutéis.
    Un saludo.
    TabsFácil.





I won't give in. Asking Alexandria.

   (0:54)
1.--------------------------------------
2.--------------------------------------
3.--------------------------------------
4.--------------------------------------
5.--7-7--7-7--7-7--7-7---5-5-5-5--5-5-5-
6.--5-5--5-5--5-5--5-5---3-3-3-3--3-3-3-

1.--------------------------------------
2.--------------------------------------
3.--------------------------------------
4.--7-7--7-7--7-7--7-7---7-7-7-7--7-7-7-
5.--5-5--5-5--5-5--5-5---5-5-5-5--5-5-5-
6.--------------------------------------

1.--------------------------------------
2.--------------------------------------
3.--------------------------------------
4.--------------------------------------
5.--3-3--3-3--3-3--3-3---5-5-5-5--5-5-5-
6.--1-1--1-1--1-1--1-1---3-3-3-3--3-3-3-


1.--------------------------------------
2.--------------------------------------
3.--------------------------------------
4.--7-7--7-7--7-7--7-7---7-7-7-7--7-7-7-
5.--5-5--5-5--5-5--5-5---5-5-5-5--5-5-5-
6.--------------------------------------...

  (3:05)
1.-------------------------------------
2.-------------------------------------
3.-------------------------------------
4.-------------------------------------
5.--5-3-5--5-3-5--3-3-3--6-6-6--5-3-5--
6.---------------(PMPMPM)--------------

1.------------------------------
2.------------------------------
3.------------------------------
4.---------5-5-5----------------
5.--5-3-5---------6-6-6---5-3-5-
6.------------------------------...

Más tablaturas de...Asking alexandria.

No hay comentarios:

Publicar un comentario