.

banners

Tabs fácil de...Can't kill the devil. Metal Allegiance.




  Espectacular la banda que traemos hoy a Tablaturas fáciles, tan espectacular como el tema "Can't kill the devil" al más puro thrash metal de toda la vida, así da gusto, pero es que cuando ves quién hay detrás de este Metal allegiance, miembros de Megadeth, de Testament o Dream Theater entonces es cuando te termina de convencer del todo, este disco hay que escucharlo. Por si fuera poco para la grabación y composición del álbum se han rodeado de numerosas estrellas del género. Si te gusta el heavy metal en su vertiente mas thrash Metal allegiance es el disco que no puedes dejar de oír.
  Espero que disfrutéis con esta Tablatura tanto como yo he disfrutado.
  Un saludo.
  TabsFácil.





Can't kill the devil. Metal Allegiance.

1.-------------------------------------
2.-------------------------------------
3.-------8-8---------------------------
4.----8--8-8---11-10-9----------6-7-6--
5.-/--6---------9--8-7--7-6-7-9-------9
6.-------------------------------------

1.-------------------------------------
2.-------------------------------------
3.-----8-8-----------6-/-9-----8-8-----
4.--8--8-8--11-10-9--4-/-7--8--8-8--11-
5.--6--------9--8-7---------6--------9-
6.-------------------------------------

1.-------------------------------------
2.-------------------------------------
3.------------------------8-8----------
4.-10-9--------7h6-4h6-8--8-8--11-10-9-
5.--8-7--6h7-9---------6--------9--8-7-
6.----------------------------------...


Más tablaturas de... Metal Allegiance.

No hay comentarios:

Publicar un comentario en la entrada