.

banners

Tabs fácil de... Top of the world. Saxon.



  El 16 de Octubre salía a la luz el álbum nº 21 de Saxon, legendaría banda exponente del heavy metal que ya lleva sus añitos haciendo buena música. Saxon, a mi gusto, es una de las mejores bandas que he oído nunca, me gustan mucho sus melodías y sus guitarras con ese corte heavy clásico, aunque, tengo que reconocer que en este "Battering ram" los riffs de guitarra me suenan algo más modernos, cosa que no me disgusta, pero, que le voy a hacer soy un clásico.
  Os quiero dejar unos momentos en tablatura del tema "Top of the world" que espero como siempre que os guste y disfrutéis.
  Un saludo.
  TabsFácil.





Top of the world. Saxon.

1.------------------------------------
2.------------------------------------
3.------------------------------------
4.------------------------------------
5.--6--6-6-6--6-6-6-6--6-6-6--6-6-6-6-
6.------------------------------------

1.------------------------------------
2.------------------------------------
3.------------------------------------
4.------------------------------------
5.--8-9--6--6-6-6--6-6-6-6--6-6-6--6-6
6.------------------------------------

1.------------------------------------
2.------------------------------------
3.------------------------------------
4.------------------------------------
5.--6-6-8-9--2--2-2-2-2--2-2-2-2--2-2-
6.------------------------------------

1.------------------------------------
2.------------------------------------
3.------------------------------------
4.------------------------------------
5.--2--2-2-2-4-5--2--2-2-2-2--2-2-2-2-
6.------------------------------------

1.-----------------  
2.-----------------
3.-----------------       
4.-----------------
5.--2-2-2--2-2-2-4-
6.-----------------...

1.------------------------------------
2.------------------------------------
3.--8-6-8--8-6-8-6-/10-6--8-6-8--8-6-8
4.------------------------------------
5.------------------------------------
6.------------------------------------

1.------------------------------------
2.------------------------------------
3.-6-8-/10-6--8-6-8--8-6-8-6-/10-6--8-
4.------------------------------------
5.------------------------------------
6.------------------------------------

1.---------------------
2.---------------------
3.--6-8--8-6-8-6-8-/10-
4.---------------------
5.---------------------
6.--------------------...

Más tablaturas de...Saxon.

No hay comentarios:

Publicar un comentario