.

banners

Tabs fácil de... Scream for silence. Children of Bodom.




 Después de la buena acogida de la última y única tablatura de Children of Bodom en Tabs Fácil y, aunque creo que me han faltado algunas notas en ésta tablatura pero, más o menos queda lo suficientemente decente para poder practicar y divertirse un rato, aquí os dejo otro momento de una buenísima canción de éste grupo que no había escuchado nunca, pero, que suena muy bien. Que la disfrutéis!
  Un saludo.
  TabsFácil.







 Scream for silence. Children of bodom

1.-----------------------------------------------
2.---------------------8(9)(8)-------------------
3.---------------5---5---------8-10--------------
4.-------5-6-5-----8----------------------5-6-5-4
5.-8-6-8-------8--------------------8-6-8--------
6.-----------------------------------------------

1.--------8(9)(8)-6-----------------------------
2.----------------------------------------8(9)(8)
3.-6-5-6---------------------------5---5---------
4.-------------------------5-6-5-----8-----------
5.-------------------8-6-8-------8---------------
6.--------------------------------------------. . .

(0:34)
1.-----------------------------
2.-----------------------------
3.------------------5------4---
4.-----------3----5----5-6-----
5.---3-----3----3--------------
6.---1---1-----------------. . .


Más tablaturas de...Children of Bodom.

No hay comentarios:

Publicar un comentario