.

banners

Tabs fácil de... Last man stand. Dragonforce.



  Me encanta este grupo y cómo suenan las guitarras en este álbum. No descarto intentar sacar más pedazos de tablaturas aunque las manos de éste virtuoso son difíciles de seguir! 
  Os dejo un pedacito pertenenciente a "Last man stands" que como siempre os digo espero que os guste como ha quedado.
   "Last man stand" de Dragonforce en Tablaturas fáciles.
  Un saludo.

  Tabs Fácil.






  
Last man stands. Dragonforce.

(0:30)
1.-----------/10-7-----------------------------
2.-------/10-------10-8-7-8-7----8-7-10-8-7----
3.---6/7----------------------7-------------9-7
4.---------------------------------------------
5.---------------------------------------------
6.---------------------------------------------

1.--------------10-------------------------------
2.-----10-10-10----/10-7-------------------------
3.-/11-------------------9-7----9-11--/14-/16-/19
4.--------------------------/12------------------
5.-----------------------------------------------
6.-----------------------------------------------

1.-----------------------------------------------
2.-----19-----------22---/12-10------------------
3.-/21----21-19-/21-------------12-11----12-11---
4.------------------------------------14-------12
5.-----------------------------------------------
6.-----------------------------------------------

1.----------------------------------
2.----------------------/15-14-12---
3.----------------------------------
4.---12-14-16-14-12-12--------------
5.----------------------------------
6.----------------------------. . .

Más tablaturas de... Dragonforce.

No hay comentarios:

Publicar un comentario en la entrada