.

banners

Tabs fácil de... Inferno. Marty Friedman.



 No podíamos dejar pasar por alto en Tabs fáciles, uno de los mejores guitarristas del mundo, que tan buenos momentos nos dejara en su época de Megadeth, o incluso de Cacophony. Ésta vez hemos elegido un momento en tablatura fácil, en concreto el inicio de su último trabajo en solitario, en el que se rodeaba de colaboradores para presentarnos este buen disco.
  Espero que lo disfrutéis.
  Un saludo.
  TabsFácil.




  Inferno. Marty Friedman.

1.---------------------------------------------8-
2.-------/8-8--------/8-9--------/8-/10--10h11---
3.----/5----------/5----------/5-----------------
4.-/5----------/5----------/5--------------------
5.-----------------------------------------------
6.-----------------------------------------------

1.-----------------------------------------------
2.-10h11----------------15h17-13-----------------
3.-------10-\7---17(19)----------14--12h14h12\10-
4.-----------------------------------------------
5.-----------------------------------------------
6.-----------------------------------------------

1.------------------------------
2.---/10-/11\10h8------------11-
3.----------------9--10--12-----
4.------------------------------
5.------------------------------
6.---------------------------...

Más tablaturas de... Marty Friedman.

No hay comentarios:

Publicar un comentario en la entrada