.

banners

Tabs fácil de... Dying song. Metal allegiance.



 Del grupo formado por talentos de otras bandas como Testament y Megadeth entre otras y que, además se rodearon de numerosas colaboraciones para la grabación de su primer disco, salía este disco, del que utilizaron como tema adelanto, "Dying song", temazo como prácticamente todos los que forman parte del plástico.
  Hoy en Tablaturas fáciles Metal Allegiance y su "Dying song," del que hoy os quiero dejar unos momentos en tablatura.
   Un saludo.
   TabsFácil.






Dying song. Metal allegiance.

1.-----------------------------------
2.-----------------------------------
3.------6--------6--------6------4---
4.----6---6----6---6--4-6--6--2-4--4-
5.--4--------7-----------------------
6.-----------------------------------

1.-------------------------------------
2.-------------------------------------
3.------6--------6--------6------------
4.----6---6----6---6--4-6--6--2--2-2/-4
5.--4--------7-------------------------
6.-----------------------------------...

(0:40)
1.-------------------------------
2.-------/9-7---------------/9-7-
3.--/9---------9h8------/9-------
4.-----------------11------------
5.-------------------------------
6.------------------------------...

(1:35)
1.----------------------------------
2.----------------------------------
3.----------------------------------
4.--4-6--4-6--6-6-6-6--6-6-6--6-6-6-
5.--2-4--2-4--4-4-4-4--4-4-4--4-4-4-
6.----------------------------------

1.-----------------------
2.-----------------------
3.-----------------------
4.--4-6--4-6--4-6--4-6-7-
5.--2-4--2-4--2-4--2-4-5-
6.-----------------------...

Más tablaturas de... Metal Allegiance.

No hay comentarios:

Publicar un comentario