.

banners

Tabs fácil de... Drink. Alestorm.



  Otro momento de diversión y aprendizaje con el curso de guitarra que nos ofrecen los riffs de la banda pirata metalera Alestorm para Tablaturas fáciles. Ésta vez con el tema "Drink" perteneciente a su último trabajo que, saliera allá por el 2014.
  Alestorm en Tablaturas fáciles.
  Un saludo.
  TabsFácil.





Drink. Alestorm.

1.-------------------------------------------
2.-------------------------------------------
3.-------------------------------------------
4.-------------------------------------------
5.-3-3--3-3-3--3-3--3-3-3-3--3-3--3-3-3--3-3-
6.-------------------------------------------

1.----------------------------------------------
2.----------------------------------------------
3.----------------------------------------------
4.---------------5-------5-----3/5-----5-3-----5
5.-3-3-3-3---3-3---3-3-3---3-3-----3-3-----3-3--
6.----------------------------------------------

1.----------------------------------------------
2.----------------------------------------------
3.----------------------------------------------
4.-------5-----3/5-----5-3-----5-------5-----3/5
5.-3-3-3---3-3-----3-3-----3-3---3-3-3---3-3----
6.----------------------------------------------

1.-----------------------------
2.-----------------------------
3.-----------------------------
4.-------5-3-----5-------5---5-
5.---3-3-----3-3---3-3-3-----3-
6.-----------------------------


(0:38)
1.-8---11--3---8---11---10--10--11---3---8---11
2.-8---11--3---8---11---10--10--11---3---8---11
3.-8---11--3---8---11---11--10--11---3---8---11
4.-10--13--5---10--13---12--10--13---5---10--13
5.-10--13--5---10--13---12--10--13---5---10--13
6.-8---11--3---8---11---10--8---11---3---8---11

1.---10--------------
2.---10--------------
3.---11--------------
4.---12------------5-
5.---12----8---5---3-
6.---10----6---3-----. . .


Más tablaturas de... Alestorm.

No hay comentarios:

Publicar un comentario en la entrada