.

banners

Tabs fácil de... Defenders. Dragonfroce.




   Donde de veras se nota lo que me divierto con este blog, es cuando vuelvo a sacar tablaturas de los nuevos trabajos de grupos que ya han pasado por aquí, como es el caso de Dragonforce. Bueno de ese pedazo de guitarrista, virtuoso donde los haya poco puedo sacar, pedacitos, porque cuando se pone a a correr con el mástil, un servidor se pierde. Aquí os dejo algunos momentos en tablatura fácil 
del tema "Defenders" que espero que disfrutéis.
  Un saludo.
  TabsFácil.






Defenders. Dragonforce.

1.------------------------------------------
2.------------------------------------------
3.------------------------------------------
4.------------------------------------------
5.-2---2-2-2-2-2-2---2---2-2-2-2-2-2---2---2
6.------------------------------------------

1.---------------------------------------------
2.---------------------------------------------
3.---------------------------------------------
4.------------------------------4-5------------
5.-2-2-2-3-5-3-2--2-2-2-2-2-2--2---4-5-4-5-0-5(vib.)
6.---------------------------------------------

1.-------------------------------------------
2.-------------------------------------------
3.-------------------------------------------
4.-------------------------------------------
5.-2---2-2-2-2-2-2---2---2-2-2-2-2-2---2---2-
6.-------------------------------------------

1.-------------------------------------------------
2.-------------------------------------------------
3.-------------------------------------------------
4.--------------------------------4-5--------------
5.-2-2-2-3-5-3-2--2-2-2-2-2-2--2------4-5-4-5-0-5-2
6.-------------------------------------------------. . .

(0:12)
1.-----9-10-9----12-10-9-10-10----10----9-5h7---
2.---8--------10---------------10----10---------
3.----------------------------------------------
4.----------------------------------------------
5.----------------------------------------------
6.----------------------------------------------

1.-----9-10-12-10-12-14---
2.---8--------------------
3.------------------------
4.------------------------
5.------------------------
6.-----------------------. . .

(3:01)
1.-------------------------------------
2.--------7----------------------------
3.------------9---7-6h7h6--------------
4.-----9----9---9---------9------9-7-7-
5.--------------------------9-10-------
6.---7-------------------------------. . .


Más tablaturas de...

No hay comentarios:

Publicar un comentario en la entrada