.

banners

Tablatura fácil de...Song for someone. U2.



 Otro de esos discos que era muy esperado y que los chicos de U2 tuvieron la cortesía de regalar a todos los usuarios de iTunes. 
  Para Tablaturas fáciles he encontrado algún tema del que me ha parecido interesante presentaros unos momentos en tablatura, como es "Song for someone".
  Un saludo.
  TabsFácil.




Song for someone. U2.

1.-------------------------------------------------
2.-------------------------------------------------
3.-------------------------------------------------
4.---4-2---4-2-2--4-2--4-2-2--4----4------6----6---
5.-2-----2-------2----2--------4----4------6----6--
6.---------------------------2----2----2--4----4--4

1.-------------------------------------------------
2.-------------------------------------------------
3.-------------------------------------------------
4.---4-2--4-2-2--4-2--4-2-2---4----4------6----6---
5.-2-----2------2----2---------4----4------6----6--
6.---------------------------2----2----2--4----4--4

  (2:14)
1.--7--7--7--7--7--7--7--7--6--6--6--6--7--7--6-4-
2.-7--7--7--7--7--7--7--7--7--7--7--7--7--7--7----
3.------------------------------------------------
4.------------------------------------------------
5.------------------------------------------------
6.------------------------------------------------

1.--7--7--7--7--7--7--7--7--6--6--6--6--7--7--6-4-
2.-7--7--7--7--7--7--7--7--7--7--7--7--7--7--7----
3.------------------------------------------------
4.------------------------------------------------
5.------------------------------------------------
6.------------------------------------------------

(2:33)
1.-7-7-7-11--7-7-6-11--6-6-6-11--7-7-6-4--7-7-7-11-
2.-------------------------------------------------
3.-------------------------------------------------
4.-------------------------------------------------
5.-------------------------------------------------
6.-------------------------------------------------

(2:51)
1.-7-7-6-11--6-6-6-11--7-7-6-4--11-9-7-9-11--11--7-
2.-------------------------------------------------9
3.--------------------------------------------------
4.--------------------------------------------------
5.--------------------------------------------------
6.--------------------------------------------------

1.-11-9-7-9-11--7-9--11-9-7-9-11--7--11-9-7-9-7---
2.------------9------------------9--------------9-
3.------------------------------------------------
4.------------------------------------------------
5.------------------------------------------------
6.------------------------------------------------

1.-11-9-7-9-11--11--7--11-9-7-9-11--7-9--11-9-7-9-11
2.----------------9----------------9----------------
3.--------------------------------------------------
4.--------------------------------------------------
5.--------------------------------------------------
6.--------------------------------------------------

1.---11--7---11-9-7-9---7---
2.-----9------------------9-
3.--------------------------
4.--------------------------
5.--------------------------

6.--------------------------

Más tablaturas de...

No hay comentarios:

Publicar un comentario