.

banners

Tablatura fácil de...Rum. Alestorm.




  Como si de un curso de guitarra se tratara, o el complemento perfecto para el que elijas, así es como vamos a tratar la tablatura fácil de hoy, con la que podemos practicar la alternancia de la púa.
  Del álbum "Back through time" de los cachondos piratas metaleros Alestorm, extraemos uno de tantos buenos riffs, en concreto de su tema "Rum."
   Un saludo.
   TabsFácil.







Rum. Alestorm.

1.-----------------------------------------------
2.-----------------------------------------------
3.-----------------------------------------------
4.------------------------------------1-1-1-1-1-1
5.-1--1-4-3---1--1-4-3---1--1-4-3----------------
6.----------4----------4-----------4-------------

1.----------------------------------------
2.----------------------------------------
3.----------------------------------------
4.---------------3-1---1------------------
5.-1---1-4-3---1-----4---4-3-4-3-1-3-1---1
6.-----------4-------------------------4--

1.--------------------------------------
2.--------------------------------------
3.--------------------------------------
4.-----------------------------8-8-8----
5.-8--8-8-8-8--8-8-8-8--8-8-8--6-6-6--8-
6.-6--6-6-6-6--6-6-6-6--6-6-6---------6-

1.--------------------------------------
2.--------------------------------------
3.--------------------------------------
4.--------------------6---8-------------
5.--8-8-8-8--8-8-8-8--4---6---8---6---8-
6.--6-6-6-6--6-6-6-6---------10---4---6-

Más tablaturas de...Alestorm.

No hay comentarios:

Publicar un comentario