.

banners

Tablatura fácil de... Try. Pink. (Covers).




 Doble entrada de Pink hoy en Tablaturas fáciles con la que vamos a practicar y divertirnos tocando un covers de uno de sus temas más conocidos. Se trata de "Try" tema perteneciente a el álbum "The truth about love" de 2012.
  Un saludo.
  TabsFácil.





Try. Pink (cover version).


(0:24) voz pink.

1.-------------------------------------------------
2.--------------------7/--------------------------
3.-/7-7--7-7-7--7-7-7------------------------------
4.--------------------------12-12--12-12-12--12-12-
5.-------------------------------------------------
6.-------------------------------------------------


1.-------------------------------------------------
2.-------------------/10-8-7-----------------------
3.-/7-7--7-7-7--7-7--------------------------------
4.-----------------------------12-12--12-12-12--12
5.-------------------------------------------------
6.-------------------------------------------------


1.---------------------------------------------------
2.---------------------------------------------------
3.-/7---7-7-6-------------------------------------/7-
4.-------------7/9-7-------7-7--7-7-7----------------
5.--------------------9----------------7-9-10-9------
6.------------------------------------------------...






Más tablaturas de... Pink.

No hay comentarios:

Publicar un comentario en la entrada