.

banners

Tablatura fácil de... The trooper overture. 2cellos.



 En realidad, aunque no estoy muy seguro, esta tablatura  fácil, bien podría titularla como la obertura que pertenece a alguna ópera de Rossini, creo que Guillermo Tell. El caso es que como verdaderamente me ha vuelto a sorprender ha sido interpretada por estos dos máquinas.
  Mira que en el mundo de las covers y en el de las dedicadas a Iron Maiden especialmente Thomas Zwijsen ha colocado el liston bien alto,pero llegan 2cellos y reinventan la canción, primero con la obertura, y segundo con esa interpretación que a mi, personalmente me ha dejado obnubilado.
   Lo suyo es que la hubiera grabado ya sea audio o video, y lo tengo que hacer, pero de momento, os la dejo en tablatura por que me parece que me ha quedado bastante interesante para al menos, divertirse un rato.
   Un saludo.
   TabsFácil.




 The trooper overture. 2cellos.

1.---------------------------------------------
2.---------------------------------5-----------
3.---7---7-7-7---7-7-7-------7---7---7---------
4.---------------------9-5-9---9-------9---5-9-
5.---------------------------------------------
6.---------------------------------------------

1.------------------------------------------------
2.---------5--------------------------------------
3.---7---7---7---7-7-7---7-7-7--------------------
4.-----9-----------------------0-0-0---0-0-0-0-0-0
5.------------------------------------------------
6.------------------------------------------------

1.-----------------------------------------
2.-----------------------------------------
3.---------------------------------------2-
4.----0-0-0--0-0---0-0-0--0-0---0-0-0--0-0-
5.-----------------------------------------
6.-----------------------------------------

1.-------------------------------------------
2.-------------------------------------------
3.-------------------------------------------
4.---0-0-0--0-0-0--0-0-5-7-9---0-0-0--0-0-0--
5.-------------------------------------------
6.-------------------------------------------

1.-------------------------------------------
2.-------------------------------------------
3.-------------------------------------------
4.---0-0-5-9-7-4-0---0-0-0--0-0-0---0-0-5-7-9
5.-------------------------------------------
6.-------------------------------------------

1.--------------------------------------------7
2.---------------------------------------8-10--
3.-------7-4-----4-----7-7-7--7-7-7--7-7-------
4.---0-0-----7-5---5---------------------------
5.---------------------------------------------
6.---------------------------------------------

1.-----------------------7----------------------
2.---------------------8---10-7-----------------
3.---7-7-7--7-7-7--7-7----------7---7-7-7--7-7-7
4.----------------------------------------------
5.----------------------------------------------
6.----------------------------------------------

1.------------7--/10-7------7---
2.-------8-10----------10-8---8-
3.---7-7------------------------
4.------------------------------
5.------------------------------
6.------------------------------

1.------------------------------------------
2.------------------------------------------
3.-----------------------9---9--------------
4.---9-9-9--9-9-9--9-9-9---9---9-7----------
5.---------------------------------10-9-7---
6.------------------------------------------

1.--------------------------------------------
2.--------------------------------------------
3.-----------------------9---9----------------
4.---9-9-9--9-9-9--9-9-9---9---9-7----7-9-7-9-
5.---------------------------------10---------
6.--------------------------------------------

1.------------------------------------------
2.------------------------------------------
3.-----------------------9---9--------------
4.---9-9-9--9-9-9--9-9-9---9---9-7----------
5.---------------------------------10-9-7---
6.------------------------------------------

1.--------------------------------------------
2.--------------------------------------------
3.-----------------------9---9----------------
4.---9-9-9--9-9-9--9-9-9---9---9-7----7-9-7-9-
5.---------------------------------10---------
6.--------------------------------------------

1.-------------------------------------------------
2.-------------------------------------------------
3.---/7--7-7-7--7-7-7--7-7-7-----------------------
4.---------------------------0--0-0-0--0-0-0--0-0-0
5.-------------------------------------------------
6.-------------------------------------------------


1.-------------------------7---------------------
2.---------------------8-10----------------------
3.---7-7-7--7-7-7--7-7---------7-7-7--7-7-7--7-7-
4.-----------------------------------------------
5.-----------------------------------------------
6.-----------------------------------------------

1.-----7---------------------------------7-/10-7-
2.---8---10-7-----------------------8-10---------
3.------------7---7-7-7--7-7-7--7-7--------------
4.-----------------------------------------------
5.-----------------------------------------------
6.-----------------------------------------------

1.--------7---
2.---10-8---8-
3.------------
4.------------
5.------------
6.------------

1.------------------------------------------
2.------------------------------------------
3.-----------------------9---9--------------
4.---9-9-9--9-9-9--9-9-9---9---9-7----------
5.---------------------------------10-9-7---
6.------------------------------------------

1.--------------------------------------------
2.--------------------------------------------
3.-----------------------9---9----------------
4.---9-9-9--9-9-9--9-9-9---9---9-7----7-9-7-9-
5.---------------------------------10---------
6.--------------------------------------------

1.------------------------------------------
2.------------------------------------------
3.-----------------------9---9--------------
4.---9-9-9--9-9-9--9-9-9---9---9-7----------
5.---------------------------------10-9-7---
6.------------------------------------------


1.---------------------------------------------
2.---------------------------------------------
3.---------------------------------------------
4.---9-9-9--9-9-9--9-9-9--9-9-9----------------
5.-------------------------------2-2-2--2-2-2--
6.---------------------------------------------

1.--------------------------------------------
2.--------------------------------------------
3.-------------------------------4------------
4.---------------/5--5h4h5h4h5h4---5--5h4h5h4-
5.---2-2-2--2-2-------------------------------
6.--------------------------------------------

1.-------------------
2.-------------------
3.-------------------
4.---5h4h5-----5-----
5.---------7-5---5-7-

6.-------------------. . .



Más tablaturas de... 2cellos.

No hay comentarios:

Publicar un comentario