.

banners

Tablatura fácil de... Triangulum. Metal allegiance.



 Sin duda uno de los mejores discos de este 2015 ya pasado. Heavy metal del bueno, del de toda la vida. Un disco que hay que escuchar sí o sí, y es que, cuando un trabajo es bueno, sobran las palabras.
  Una de  las Tablaturas fáciles que he conseguido extraer del disco es la perteneciente a "Triangulum," del que os dejo un momento que espero que os guste y disfrutéis.
  Un saludo.
  TabsFácil.





Triangulum. Metal allegiance.

  (1:20) Guitarra 1.
1.---------------------------------
2.---------------------------------
3.---------------------------------
4.---------------------------------
5.--6-6-6-6--2-2-2-2--4-4-4-4--6-6-
6.--4-4-4-4--0-0-0-0--2-2-2-2--4-4-


1.---------------------------------
2.---------------------------------
3.---------------------------------
4.---------------------------------
5.-6-6--4/-6-6-6-6--2-2-2-2--2-4-2-
6.-4-4--2/-4-4-4-4--0-0-0-0--------


1.---------------------------------
2.---------------------------------
3.---------------------------------
4.---------------------------------
5.--1-2-1--6-6-6-6--2-2-2-2--4-4-4-
6.---------4-4-4-4--0-0-0-0--2-2-2-


1.---------------------------------
2.---------------------------------
3.---------------------------------
4.---------------------------------
5.-4--6-6-6-6--4/-6-6-6-6--2-2-2-2-
6.-2--4-4-4-4--2/-4-4-4-4--0-0-0-0-


1.------------
2.------------
3.------------
4.--4--3------
5.--2--1--2-1-
6.------------...


  (1:20) Guitarra 2.

1.------------------------------------
2.-------------16-14------------------
3.---------13--------16--13(15)(13)---
4.-------13-------------------------13
5.----14------------------------------
6.-16---------------------------------


1.--------------------------------
2.----------------------7-(9)-7---
3.----6-8-9--8h9h8h6--------------
4.--9----------------9------------
5.--------------------------------
6.--------------------------------

1.--------------------------------
2.-------------16-14-17-16(17)-16-
3.---------13---------------------
4.-------13-----------------------
5.----14--------------------------
6.-16-----------------------------

1.--------------------------------
2.------------------------------19
3.-----18-20-21--20h21h20h18------
4.--21-----------------------21---
5.--------------------------------
6.--------------------------------


1.-----18(19)-18-16-----------------
2.------------------19(21)--21h19h17
3.--20------------------------------
4.----------------------------------
5.----------------------------------
6.----------------------------------


1.----------------------------------
2.-----21-19------------------------
3.--21-------20-----18-20-21--20h21h
4.---------------21-----------------
5.----------------------------------
6.----------------------------------


1.----------------------------18(19)
2.---------------------------------
3.-h20h18----18-20-21-20--20-------
4.--------21-----------------------
5.---------------------------------
6.---------------------------------


1.--18-16-19(21)--18-19-21-
2.-------------------------
3.-------------------------
4.-------------------------
5.-------------------------
6.-------------------------...




Más tablaturas de... Metal Allegiance.

No hay comentarios:

Publicar un comentario en la entrada