.

banners

Tablatura fácil de... Touch too much. AC/DC.



 Aprovechando aquí en Tablaturas fáciles que AC/DC vuelve a estar de actualidad con su gira mundial y la incursión en la banda de Axl Rose, queremos publicar un momento en tablatura de un clásico de la banda que, por otra parte han vuelto a tocar en sus directos después de muchos, muchos años.
  Así que prepara la guitarra para aprender y divertirte con el estribillo de "Touch too much" todo un clásico de AC/DC en TabsFácil.
  Un saludo.
  TabsFácil.






Touch too much. AC/DC.


(0:40)

1.-------------------------------------------|
2.-------------------------------------------|
3.----------------------7--------------------|
4.-2-2--5--7------------7---2--5--7----------|
5.-2-2--5--7---2/3-2-0--5---2--5--7--2/3-2-0-|
6.-0-0--3--5----------------0--3--5----------|

1.--------------------------------------------|
2.--------------------------------------------|
3.--7----------------7------------------------|
4.--7--2--5--7-------7---2-2--5--7-7--7-7--7-7|
5.--5--2--5--7--2/3--5---2-2--5--7-7--7-7--7-7|
6.-----0--3--5-----------0-0--3--5-5--5-5--5-5...



Más tablaturas de... AC/DC.

No hay comentarios:

Publicar un comentario