.

banners

Tablatura fácil de... Revolución. Mägo de Oz.



Una banda por la que siento especial devoción desde hace muchos, muchos años ya, y que así se plasma en Tablaturas fáciles, lo digo por la cantidad de post o tablaturas que tengo de ellos, a las que añado un momento en tablatura de este "Revolución," tema de Patricia Tapia y su banda KHY del que han hecho su propia versión.
  Un saludo.
  TabsFácil.





Revolución. Mägo de Oz.
1.-------------------------------------|
2.-------------------------------------|
3.-12(14)(12)-10-10--10-10-10----10-12-|
4.----------------------------14-------|
5.-------------------------------------|
6.-------------------------------------|

1.-------------------------------------|
2.----13-------------------------------|
3.-14-----12(14)(12)-10-10--12-14-12h10
4.-------------------------------------|
5.-------------------------------------|
6.-------------------------------------|

1.-------------------------------------|
2.-------------------------------------|
3.----10-----10-10-10----10-12----10---|
4.-14----10-----------14-------14------|
5.-------------------------------------|
6.-------------------------------------|

1.------------------------|
2.-/13-11-----------------|
3.--------14-12--10-14-12-|
4.------------------------|
5.------------------------|
6.------------------------...



Más tablaturas de...Mägo de Oz.

No hay comentarios:

Publicar un comentario en la entrada