.

banners

Tablatura fácil de... Requiem for a dream. (B.S.O).




 La Tablatura de hoy, es la tabscripción de un cover,  una versión para guitarra de la (B.S.O) de la película "Requiém for a dream." 
  Es verdad que la película tiene sus añitos, pero la banda sonora sigue sonando muy bien, así que aquí os dejo la tablatura fácil para que, disfrutéis y practiquéis tocando la guitarra.
  Un saludo.
  TabsFácil.



 Requiem for a dream. (version heavy metal)


1.-6-6-5-5----------6-6-5-5----------6-6-5-5--------
2.---------8-8--------------8-8--------------8-8----
3.-------------7-7--------------7-7--------------7-7
4.--------------------------------------------------
5.--------------------------------------------------
6.--------------------------------------------------

1.-8-8-6-6-5-5-6-6---6-6-5-5----------6-6-5-5--------
2.---------------------------8-8--------------8-8----
3.-------------------------------7-7--------------7-7
4.---------------------------------------------------
5.---------------------------------------------------
6.---------------------------------------------------

1.-6-6-5-5----------8-8-6-6-5-5-6-6------------------
2.---------8-8---------------------------------------
3.-------------7-7-----------------------------------
4.-------------------------------------/7-/8-/5------
5.----------------------------------/10---------/6-/5
6.---------------------------------------------------






Guit 1. (0:14)
1.-------------------------
2.-------------------------
3.---2-----------2---------
4.---0-------3---0-------3-
5.-------5---1-------5---1-
6.-------3-----------3-----. . .

Guit 1. (0:40)
1.--------------------------------------------------
2.--------------------------------------------------
3.--------------------------------------------------
4.--------------------------------------------------
5.--------------------------------------------------
6.-3-3-3-3-3-3-3-3--6-6-6-6-6-6-6-6--8-8-8-8-8-8-8-8

1.-----------------------------------------------
2.-----------------------------------------------
3.-----------------------------------------------
4.-----------------------------------------------
5.-----------------------------------------------
6.-11-11-11-11--10-10-10-10--8-8-8-8--3-3-3-3-3-3

1.--------------------------------------------------
2.--------------------------------------------------
3.--------------------------------------------------
4.--------------------------------------------------
5.--------------------------------------------------
6.-3-3-3-3-3-3-3-3--6-6-6-6-6-6-6-6--8-8-8-8-8-8-8-8

1.-----------------------------------------------
2.-----------------------------------------------
3.-----------------------------------------------
4.-----------------------------------------------
5.-----------------------------------------------
6.-11-11-11-11--10-10-10-10--8-8-8-8--3-3-3-3-3-3

1.--------------------------------------------
2.--------------------------------------------
3.--------------------------------------------
4.---------------------------8---7---3--/5---7
5.-5--5-5-5-5-5--5-5-5-5--6--5---1--/3---5---5
6.-3--3-3-3-3-3--3-3-3-3-------------------3--

                    (1:05)
1.-----------------------------------------------
2.------------------6-----6-----6-------------6--
3.----------------7---7-7---7-7---7-7-8-7---7---7
4.-3--/5-----------------------------------------
5.-1--/3---5-------------------------------------
6.---------3-------------------------------------

1.---------------------
2.-----6-----6---------
3.---7---7-7---7-7-8-7-
4.---------------------
5.---------------------
6.---------------------

guit 2. (0:14)
1.----------------------------------------------------
2.----------------------------------------------------
3.----------------------------------------------------
4.-----8-8-7-7-5-5-----8-8-7-7-5-5-----8-8-7-7-5-5----
5.-5-5-------------5-5-------------5-5-------------5-5
6.----------------------------------------------------

1.--------------------
2.--------------------
3.---5-5--------------
4.-------8-8-7-7-8-8--
5.--------------------
6.--------------------

1.----------------------------------------------------
2.----------------------------------------------------
3.----------------------------------------------------
4.-----8-8-7-7-5-5-----8-8-7-7-5-5-----8-8-7-7-5-5----
5.-5-5-------------5-5-------------5-5-------------5-5
6.----------------------------------------------------

1.--------------------
2.--------------------
3.---5-5--------------
4.-------8-8-7-7-8-8--
5.--------------------
6.--------------------

1.----------------------------------------------------
2.----------------------------------------------------
3.----------------------------------------------------
4.-----8-8-7-7-5-5-----8-8-7-7-5-5-----8-8-7-7-5-5----
5.-5-5-------------5-5-------------5-5-------------5-5
6.----------------------------------------------------

1.---------------------
2.---------------------
3.---5-5---------------
4.-------8-8-7-7-8-8---
5.---------------------
6.---------------------

1.----------------------------------------------------
2.----------------------------------------------------
3.----------------------------------------------------
4.-----8-8-7-7-5-5-----8-8-7-7-5-5-----8-8-7-7-5-5----
5.-5-5-------------5-5-------------5-5-------------5-5
6.----------------------------------------------------

                       (0:40)
1.----------------------------------------------------
2.----------------------------------------------------
3.-5-5---------------15-12---15-14—15-12---15-14-15-12
4.-----8-8-7-7-8-8------------------------------------
5.----------------------------------------------------
6.----------------------------------------------------

1.------------------------------------
2.------------------------------------
3.-15-12-15-12-15-12-15-12-15-12-15-14
4.------------------------------------
5.------------------------------------
6.------------------------------------

1.----------------------------------------------
2.----------------------------------------------
3.-15-12-15-14---15-12-15-14---15-14-15-14-15-14
4.----------------------------------------------
5.----------------------------------------------
6.----------------------------------------------

1.--------------------------------------------
2.--------------------------------------------
3.-15-14-15-14-15-12--15-14-15-12--15-14-15-12
4.--------------------------------------------
5.--------------------------------------------
6.--------------------------------------------

1.-------------------------------------------------
2.-------------------------------------------------
3.-15-12-15-12-15-12-15-12-15-12-15-14--15-12-15-14
4.-------------------------------------------------
5.-------------------------------------------------
6.-------------------------------------------------


1.-------------------------------------------------
2.-------------------------------------------------
3.-15-12-15-14--15-14-15-14-15-14-15-14-15-14-15-12
4.-------------------------------------------------
5.-------------------------------------------------
6.-------------------------------------------------

Guit 2. (1:05)
1.------------------------------------------------
2.------------------------------------------------
3.-----3-3-2-2-0-0-----3-3-2-2-0-0-----3-3-2-2-0-0
4.-0-0-------------0-0-------------0-0------------
5.------------------------------------------------
6.------------------------------------------------

1.---------------------------------------------
2.-----1-1-------------------------------------
3.---------3-3-2-2-3-3-----3-3-2-2-0-0----3-3-2
4.-0-0-----------------0-0------------0-0------
5.---------------------------------------------
6.---------------------------------------------

1.---------------------------------------------
2.------------------------------1-1------------
3.-2-0-0------3-3-2-2-0-0-----------3-3-2-2-3-3
4.--------0-0--------------0-0-----------------
5.---------------------------------------------
6.---------------------------------------------

(1:18)
1.---------------------------------------------
2.---------------------------------------------
3.-17(19)-17(19)(17)---------------------------
4.-------------------17--/8-8-5-7/8-8-7-8/10-10
5.---------------------------------------------
6.---------------------------------------------

1.----------------------------
2.----------------------------
3.----------------------------
4.---8-10/12-12-10-12/13-12---
5.----------------------------
6.----------------------------. . .

(1:39)
1.-----------------------------------------------
2.-----------------------------------------------
3.----3-2-----------15-15-14-14-12-15-15-14-14-12
4.-/5--------------------------------------------
5.--------/5-1-3/5-------------------------------
6.-----------------------------------------------

1.--------------------------------------------------
2.--------------------------------------------------
3.-15-15-15-14-14-12-12-14-14H15-14-15-15h17-14-15-12
4.--------------------------------------------------
5.--------------------------------------------------
6.--------------------------------------------------

1.---------------------------------
2.---------------------------------
3.---15-15-14-14-12-15-15-14-14-12-
4.---------------------------------
5.---------------------------------
6.---------------------------------

1.---------------------------------------------------
2.---------------------------------------------------
3.-15-15-15-14-14-12-12-14-14H15-14-15-15h17-14-15-12
4.---------------------------------------------------
5.---------------------------------------------------
6.---------------------------------------------------

Más tablaturas de...

No hay comentarios:

Publicar un comentario en la entrada