.

banners

Tablatura fácil de... Psycho. Muse.



   Hace ya muchos muchos años que las emisoras de radio de la época nos vendieron a Muse como los "nuevos Nirvana", algo en lo que siempre hay que utilizar el típico tópico de "es cuestión de gustos".
  Sea como fuere ya han pasado muchos pero que muchos años desde entonces y aunque no es una banda que haya seguido con mucha asiduidad,  he querido dejaros hoy, en Tablaturas fáciles "Psycho" el single con que lanzaban al mercado "Drones" último trabajo hasta la fecha de la banda que, espero que os guste y lo disfrutéis.
  Un saludo.
  TabsFácil.






Psycho. Muse.

   (0:28)
1.------------------------------------
2.------------------------------------
3.------------------------------------
4.---------5--------------5(6)-5(6)---
5.---5-8-5---5-8-5--5-8-5-----------5-
6.------------------------------------


1.------------------------------------
2.------------------------------------
3.------------------------------------
4.-------5--------------5(6)-5(6)-----
5.---8-5---5-8-5--5-8-5-----------5---
6.----------------------------------...

   (0:59)
1.------------------------------------
2.------------------------------------
3.---------6--------------6-----------
4.---7-8-7---7-8-7--7-8-7---7-8-7-5---
5.------------------------------------
6.------------------------------------


1.--------------------------------
2.--------------------------------
3.--------------------------------
4.---7-5-8-7-5------5------7---5--
5.-------------8--8---7--8---8----
6.-------------------------------...

Más tablaturas de...Muse.

No hay comentarios:

Publicar un comentario en la entrada