.

banners

Tablatura fácil de... Penaltis. Leiva.



  Aprovechando la inminente salida de su próximo trabajo queremos en Tablaturas fáciles dejaros un momento en tablatura del tema "penaltis" perteneciente a su último trabajo discográfico. Si, estoy hablando de Leiva, con el que espero que disfrutéis y paséis un buen rato mientras practicáis.
  Un saludo.
  TabsFácil.






Penaltis. Leiva

1.----------------------------------------------
2.---------4h5------------------4-4-------------
3.-6---4h6-----4-------/6---4h6-----6---/6---4h6
4.---------------6------------------------------
5.-----------------7----------------------------
6.----------------------------------------------

1.------------------------------
2.---4-5-------4---4-4h5h4------
3.-------4/6-4--------------6-4-
4.------------------------------
5.------------------------------
6.------------------------------


Más tablaturas de...Leiva.

No hay comentarios:

Publicar un comentario